  0
SECTION
  2
HEADER
  9
$ACADVER
  1
AC1014
  9
$ACADMAINTVER
 70
     9
  9
$DWGCODEPAGE
  3
ANSI_1252
  9
$INSBASE
 10
0.0
 20
0.0
 30
0.0
  9
$EXTMIN
 10
-0.0000080392783275
 20
-0.0000054207412177
 30
0.0
  9
$EXTMAX
 10
819.9999919607219
 20
1069.999994579259
 30
0.0
  9
$LIMMIN
 10
0.0
 20
0.0
  9
$LIMMAX
 10
12.0
 20
9.0
  9
$ORTHOMODE
 70
     0
  9
$REGENMODE
 70
     1
  9
$FILLMODE
 70
     1
  9
$QTEXTMODE
 70
     0
  9
$MIRRTEXT
 70
     1
  9
$DRAGMODE
 70
     2
  9
$LTSCALE
 40
16.0
  9
$OSMODE
 70
    37
  9
$ATTMODE
 70
     1
  9
$TEXTSIZE
 40
9.0
  9
$TRACEWID
 40
0.05
  9
$TEXTSTYLE
  7
STANDARD
  9
$CLAYER
  8
0
  9
$CELTYPE
  6
BYLAYER
  9
$CECOLOR
 62
   256
  9
$CELTSCALE
 40
1.0
  9
$DELOBJ
 70
     1
  9
$DISPSILH
 70
     0
  9
$DIMSCALE
 40
1.0
  9
$DIMASZ
 40
1.0
  9
$DIMEXO
 40
1.0
  9
$DIMDLI
 40
0.38
  9
$DIMRND
 40
0.0
  9
$DIMDLE
 40
0.0
  9
$DIMEXE
 40
1.0
  9
$DIMTP
 40
0.0
  9
$DIMTM
 40
0.0
  9
$DIMTXT
 40
2.0
  9
$DIMCEN
 40
0.09
  9
$DIMTSZ
 40
0.0
  9
$DIMTOL
 70
     0
  9
$DIMLIM
 70
     0
  9
$DIMTIH
 70
     0
  9
$DIMTOH
 70
     0
  9
$DIMSE1
 70
     0
  9
$DIMSE2
 70
     0
  9
$DIMTAD
 70
     1
  9
$DIMZIN
 70
     0
  9
$DIMBLK
  1

  9
$DIMASO
 70
     1
  9
$DIMSHO
 70
     1
  9
$DIMPOST
  1

  9
$DIMAPOST
  1

  9
$DIMALT
 70
     0
  9
$DIMALTD
 70
     2
  9
$DIMALTF
 40
25.4
  9
$DIMLFAC
 40
1.0
  9
$DIMTOFL
 70
     0
  9
$DIMTVP
 40
0.0
  9
$DIMTIX
 70
     0
  9
$DIMSOXD
 70
     1
  9
$DIMSAH
 70
     0
  9
$DIMBLK1
  1

  9
$DIMBLK2
  1

  9
$DIMSTYLE
  2
STANDARD
  9
$DIMCLRD
 70
     0
  9
$DIMCLRE
 70
     0
  9
$DIMCLRT
 70
     0
  9
$DIMTFAC
 40
1.0
  9
$DIMGAP
 40
1.0
  9
$DIMJUST
 70
     0
  9
$DIMSD1
 70
     0
  9
$DIMSD2
 70
     0
  9
$DIMTOLJ
 70
     1
  9
$DIMTZIN
 70
     0
  9
$DIMALTZ
 70
     0
  9
$DIMALTTZ
 70
     0
  9
$DIMFIT
 70
     3
  9
$DIMUPT
 70
     0
  9
$DIMUNIT
 70
     2
  9
$DIMDEC
 70
     3
  9
$DIMTDEC
 70
     3
  9
$DIMALTU
 70
     2
  9
$DIMALTTD
 70
     2
  9
$DIMTXSTY
  7
STANDARD
  9
$DIMAUNIT
 70
     0
  9
$LUNITS
 70
     2
  9
$LUPREC
 70
     4
  9
$SKETCHINC
 40
0.1
  9
$FILLETRAD
 40
0.0
  9
$AUNITS
 70
     0
  9
$AUPREC
 70
     0
  9
$MENU
  1
.
  9
$ELEVATION
 40
0.0
  9
$PELEVATION
 40
0.0
  9
$THICKNESS
 40
0.0
  9
$LIMCHECK
 70
     0
  9
$CHAMFERA
 40
0.5
  9
$CHAMFERB
 40
0.5
  9
$CHAMFERC
 40
0.0
  9
$CHAMFERD
 40
0.0
  9
$SKPOLY
 70
     0
  9
$TDCREATE
 40
2452346.631391203
  9
$TDUPDATE
 40
2457893.683224491
  9
$TDINDWG
 40
10.0121923611
  9
$TDUSRTIMER
 40
10.0121884259
  9
$USRTIMER
 70
     1
  9
$ANGBASE
 50
0.0
  9
$ANGDIR
 70
     0
  9
$PDMODE
 70
    35
  9
$PDSIZE
 40
0.0
  9
$PLINEWID
 40
0.0
  9
$COORDS
 70
     1
  9
$SPLFRAME
 70
     0
  9
$SPLINETYPE
 70
     6
  9
$SPLINESEGS
 70
     8
  9
$ATTDIA
 70
     0
  9
$ATTREQ
 70
     1
  9
$HANDLING
 70
     1
  9
$HANDSEED
  5
16A5
  9
$SURFTAB1
 70
     6
  9
$SURFTAB2
 70
     6
  9
$SURFTYPE
 70
     6
  9
$SURFU
 70
     6
  9
$SURFV
 70
     6
  9
$UCSNAME
  2

  9
$UCSORG
 10
0.0
 20
0.0
 30
0.0
  9
$UCSXDIR
 10
1.0
 20
0.0
 30
0.0
  9
$UCSYDIR
 10
0.0
 20
1.0
 30
0.0
  9
$PUCSNAME
  2

  9
$PUCSORG
 10
0.0
 20
0.0
 30
0.0
  9
$PUCSXDIR
 10
1.0
 20
0.0
 30
0.0
  9
$PUCSYDIR
 10
0.0
 20
1.0
 30
0.0
  9
$USERI1
 70
     0
  9
$USERI2
 70
     0
  9
$USERI3
 70
     0
  9
$USERI4
 70
     0
  9
$USERI5
 70
     0
  9
$USERR1
 40
0.0
  9
$USERR2
 40
0.0
  9
$USERR3
 40
0.0
  9
$USERR4
 40
0.0
  9
$USERR5
 40
0.0
  9
$WORLDVIEW
 70
     1
  9
$SHADEDGE
 70
     3
  9
$SHADEDIF
 70
    70
  9
$TILEMODE
 70
     0
  9
$MAXACTVP
 70
    48
  9
$PINSBASE
 10
0.0
 20
0.0
 30
0.0
  9
$PLIMCHECK
 70
     0
  9
$PEXTMIN
 10
0.1665649551710189
 20
0.2061615196633895
 30
-0.0015258207003583
  9
$PEXTMAX
 10
8.101592806361108
 20
10.55978372925863
 30
0.0000000349246037
  9
$PLIMMIN
 10
-0.1249999981226884
 20
-0.1249999981226884
  9
$PLIMMAX
 10
8.374999761581421
 20
10.87499976158142
  9
$UNITMODE
 70
     0
  9
$VISRETAIN
 70
     1
  9
$PLINEGEN
 70
     0
  9
$PSLTSCALE
 70
     1
  9
$TREEDEPTH
 70
  3020
  9
$PICKSTYLE
 70
     1
  9
$CMLSTYLE
  2
STANDARD
  9
$CMLJUST
 70
     0
  9
$CMLSCALE
 40
1.0
  9
$PROXYGRAPHICS
 70
     1
  9
$MEASUREMENT
 70
     0
  0
ENDSEC
  0
SECTION
  2
CLASSES
  0
CLASS
  1
ACDBDICTIONARYWDFLT
  2
AcDbDictionaryWithDefault
  3
ObjectDBX Classes
 90
        0
280
     0
281
     0
  0
CLASS
  1
ACDBPLACEHOLDER
  2
AcDbPlaceHolder
  3
ObjectDBX Classes
 90
        0
280
     0
281
     0
  0
CLASS
  1
LAYOUT
  2
AcDbLayout
  3
ObjectDBX Classes
 90
        0
280
     0
281
     0
  0
CLASS
  1
DICTIONARYVAR
  2
AcDbDictionaryVar
  3
ObjectDBX Classes
 90
        0
280
     0
281
     0
  0
CLASS
  1
MATERIAL
  2
AcDbMaterial
  3
ObjectDBX Classes
 90
     1153
280
     0
281
     0
  0
CLASS
  1
VISUALSTYLE
  2
AcDbVisualStyle
  3
ObjectDBX Classes
 90
     4095
280
     0
281
     0
  0
CLASS
  1
TABLESTYLE
  2
AcDbTableStyle
  3
ObjectDBX Classes
 90
     4095
280
     0
281
     0
  0
CLASS
  1
SORTENTSTABLE
  2
AcDbSortentsTable
  3
ObjectDBX Classes
 90
        0
280
     0
281
     0
  0
CLASS
  1
SCALE
  2
AcDbScale
  3
ObjectDBX Classes
 90
     1153
280
     0
281
     0
  0
CLASS
  1
MLEADERSTYLE
  2
AcDbMLeaderStyle
  3
ACDB_MLEADERSTYLE_CLASS
 90
     4095
280
     0
281
     0
  0
CLASS
  1
SOLID_BACKGROUND
  2
AcDbSolidBackground
  3
SCENEOE
 90
     4095
280
     0
281
     0
  0
CLASS
  1
NPOCOLLECTION
  2
AcDbImpNonPersistentObjectsCollection
  3
ObjectDBX Classes
 90
     1153
280
     1
281
     0
  0
CLASS
  1
CELLSTYLEMAP
  2
AcDbCellStyleMap
  3
ObjectDBX Classes
 90
     1152
280
     0
281
     0
  0
CLASS
  1
ACDBSECTIONVIEWSTYLE
  2
AcDbSectionViewStyle
  3
ObjectDBX Classes
 90
     1025
280
     0
281
     0
  0
CLASS
  1
ACDBDETAILVIEWSTYLE
  2
AcDbDetailViewStyle
  3
ObjectDBX Classes
 90
     1025
280
     0
281
     0
  0
CLASS
  1
LWPOLYLINE
  2
AcDbPolyline
  3
ObjectDBX Classes
 90
        0
280
     0
281
     1
  0
CLASS
  1
XRECORD
  2
AcDbXrecord
  3
ObjectDBX Classes
 90
        0
280
     0
281
     0
  0
CLASS
  1
HATCH
  2
AcDbHatch
  3
ObjectDBX Classes
 90
        0
280
     0
281
     1
  0
CLASS
  1
RAPIDRTRENDERSETTINGS
  2
AcDbRapidRTRenderSettings
  3
ObjectDBX Classes
 90
     1024
280
     0
281
     0
  0
CLASS
  1
EXACXREFPANELOBJECT
  2
ExAcXREFPanelObject
  3
EXAC_ESW
 90
     1025
280
     1
281
     0
  0
ENDSEC
  0
SECTION
  2
TABLES
  0
TABLE
  2
VPORT
  5
2A
102
{ACAD_XDICTIONARY
360
2F
102
}
330
0
100
AcDbSymbolTable
 70
     1
  0
VPORT
  5
2B
330
2A
100
AcDbSymbolTableRecord
100
AcDbViewportTableRecord
  2
*ACTIVE
 70
     0
 10
0.0
 20
0.0
 11
1.0
 21
1.0
 12
409.9872608727162
 22
535.0196863815885
 13
0.0
 23
0.0
 14
0.5
 24
0.5
 15
0.5
 25
0.5
 16
0.0
 26
0.0
 36
1.0
 17
0.0
 27
0.0
 37
0.0
 40
1078.999358165871
 41
2.661581137309293
 42
50.0
 43
0.0
 44
0.0
 50
0.0
 51
0.0
 71
     0
 72
  2000
 73
     1
 74
     3
 75
     0
 76
     0
 77
     0
 78
     0
1001
ACAD_NAV_VCDISPLAY
1070
     3
  0
ENDTAB
  0
TABLE
  2
LTYPE
  5
25
330
0
100
AcDbSymbolTable
 70
     2
  0
LTYPE
  5
26
330
25
100
AcDbSymbolTableRecord
100
AcDbLinetypeTableRecord
  2
BYBLOCK
 70
     0
  3

 72
    65
 73
     0
 40
0.0
  0
LTYPE
  5
27
330
25
100
AcDbSymbolTableRecord
100
AcDbLinetypeTableRecord
  2
BYLAYER
 70
     0
  3

 72
    65
 73
     0
 40
0.0
  0
LTYPE
  5
11
330
25
100
AcDbSymbolTableRecord
100
AcDbLinetypeTableRecord
  2
CONTINUOUS
 70
     0
  3
Solid line
 72
    65
 73
     0
 40
0.0
  0
LTYPE
  5
2D0
330
25
100
AcDbSymbolTableRecord
100
AcDbLinetypeTableRecord
  2
HIDDEN
 70
     0
  3
Hidden __ __ __ __ __ __ __ __ __ __ __ __ __ _
 72
    65
 73
     2
 40
0.375
 49
0.25
 74
     0
 49
-0.125
 74
     0
  0
ENDTAB
  0
TABLE
  2
LAYER
  5
1C
102
{ACAD_XDICTIONARY
360
1D
102
}
330
0
100
AcDbSymbolTable
 70
     1
  0
LAYER
  5
7
102
{ACAD_XDICTIONARY
360
8
102
}
330
1C
100
AcDbSymbolTableRecord
100
AcDbLayerTableRecord
  2
0
 70
     0
 62
     7
  6
CONTINUOUS
  0
ENDTAB
  0
TABLE
  2
STYLE
  5
21
330
0
100
AcDbSymbolTable
 70
     2
  0
STYLE
  5
22
330
21
100
AcDbSymbolTableRecord
100
AcDbTextStyleTableRecord
  2
STANDARD
 70
     0
 40
0.0
 41
1.0
 50
0.0
 71
     0
 42
9.0
  3

  4

1001
ACAD
1000
Arial Rounded MT Bold
1071
 33554466
  0
STYLE
  5
33
330
21
100
AcDbSymbolTableRecord
100
AcDbTextStyleTableRecord
  2
ARIAL
 70
     0
 40
4.0
 41
1.0
 50
0.0
 71
     0
 42
4.0
  3
arial.ttf
  4

1001
ACAD
1000
Arial
1071
       34
  0
ENDTAB
  0
TABLE
  2
VIEW
  5
28
330
0
100
AcDbSymbolTable
 70
     0
  0
ENDTAB
  0
TABLE
  2
UCS
  5
29
330
0
100
AcDbSymbolTable
 70
     0
  0
ENDTAB
  0
TABLE
  2
APPID
  5
30
330
0
100
AcDbSymbolTable
 70
     5
  0
APPID
  5
23
330
30
100
AcDbSymbolTableRecord
100
AcDbRegAppTableRecord
  2
ACAD
 70
     0
  0
APPID
  5
2E
330
30
100
AcDbSymbolTableRecord
100
AcDbRegAppTableRecord
  2
ACAD_NAV_VCDISPLAY
 70
     0
  0
APPID
  5
17
330
30
100
AcDbSymbolTableRecord
100
AcDbRegAppTableRecord
  2
ACAD_PSEXT
 70
     0
  0
APPID
  5
503
330
30
100
AcDbSymbolTableRecord
100
AcDbRegAppTableRecord
  2
ACAD_MLEADERVER
 70
     0
  0
APPID
  5
D99
330
30
100
AcDbSymbolTableRecord
100
AcDbRegAppTableRecord
  2
ACAD_EXEMPT_FROM_CAD_STAND
 70
     0
  0
ENDTAB
  0
TABLE
  2
DIMSTYLE
  5
31
330
0
100
AcDbSymbolTable
 70
     1
  0
DIMSTYLE
105
32
330
31
100
AcDbSymbolTableRecord
100
AcDbDimStyleTableRecord
  2
STANDARD
 70
     0
  3

  4

  5

  6

  7

 40
1.0
 41
1.0
 42
1.0
 43
0.38
 44
1.0
 45
0.0
 46
0.0
 47
0.0
 48
0.0
140
2.0
141
0.09
142
0.0
143
25.4
144
1.0
145
0.0
146
1.0
147
1.0
 71
     0
 72
     0
 73
     0
 74
     0
 75
     0
 76
     0
 77
     1
 78
     0
170
     0
171
     2
172
     0
173
     0
174
     0
175
     1
176
     0
177
     0
178
     0
270
     2
271
     4
272
     4
273
     2
274
     2
340
33
275
     0
280
     0
281
     0
282
     0
283
     1
284
     0
285
     0
286
     0
287
     5
288
     0
  0
ENDTAB
  0
TABLE
  2
BLOCK_RECORD
  5
1
330
0
100
AcDbSymbolTable
 70
     0
  0
BLOCK_RECORD
  5
2
102
{ACAD_XDICTIONARY
360
3
102
}
330
1
100
AcDbSymbolTableRecord
100
AcDbBlockTableRecord
  2
*MODEL_SPACE
  0
BLOCK_RECORD
  5
18
330
1
100
AcDbSymbolTableRecord
100
AcDbBlockTableRecord
  2
*PAPER_SPACE
  0
ENDTAB
  0
ENDSEC
  0
SECTION
  2
BLOCKS
  0
BLOCK
  5
6
330
2
100
AcDbEntity
  8
0
100
AcDbBlockBegin
  2
*MODEL_SPACE
 70
     0
 10
0.0
 20
0.0
 30
0.0
  3
*MODEL_SPACE
  1

  0
ENDBLK
  5
12
330
2
100
AcDbEntity
  8
0
100
AcDbBlockEnd
  0
BLOCK
  5
19
330
18
100
AcDbEntity
 67
     1
  8
0
100
AcDbBlockBegin
  2
*PAPER_SPACE
 70
     0
 10
0.0
 20
0.0
 30
0.0
  3
*PAPER_SPACE
  1

  0
ENDBLK
  5
1A
330
18
100
AcDbEntity
 67
     1
  8
0
100
AcDbBlockEnd
  0
ENDSEC
  0
SECTION
  2
ENTITIES
  0
LINE
  5
1209
330
2
100
AcDbEntity
  8
0
100
AcDbLine
 10
784.220933314189
 20
465.5389907996404
 30
0.0
 11
526.0942897634562
 21
465.5389907996404
 31
0.0
  0
LINE
  5
120A
330
2
100
AcDbEntity
  8
0
100
AcDbLine
 10
784.220933314189
 20
441.5389907996404
 30
0.0
 11
526.0942897634562
 21
441.5389907996404
 31
0.0
  0
LINE
  5
120B
330
2
100
AcDbEntity
  8
0
100
AcDbLine
 10
784.220933314189
 20
380.0275611631204
 30
0.0
 11
526.0942897634562
 21
380.0275611631204
 31
0.0
  0
LINE
  5
120C
330
2
100
AcDbEntity
  8
0
100
AcDbLine
 10
784.220933314189
 20
405.5389907996404
 30
0.0
 11
526.0942897634562
 21
405.538990799639
 31
0.0
  0
LINE
  5
120D
330
2
100
AcDbEntity
  8
0
100
AcDbLine
 10
784.220933314189
 20
417.538990799639
 30
0.0
 11
526.0942897634562
 21
417.538990799639
 31
0.0
  0
LINE
  5
120E
330
2
100
AcDbEntity
  8
0
100
AcDbLine
 10
784.220933314189
 20
515.632008963621
 30
0.0
 11
526.0942897634562
 21
515.632008963621
 31
0.0
  0
LINE
  5
120F
330
2
100
AcDbEntity
  8
0
100
AcDbLine
 10
571.6124272670257
 20
465.5389907996404
 30
0.0
 11
571.6124272670257
 21
344.0275611631217
 31
0.0
  0
LINE
  5
1210
330
2
100
AcDbEntity
  8
0
100
AcDbLine
 10
642.4819292827468
 20
465.5389907996404
 30
0.0
 11
642.4819292827468
 21
344.0275611631217
 31
0.0
  0
TEXT
  5
1211
330
2
100
AcDbEntity
  8
0
100
AcDbText
 10
586.3396170631589
 20
382.985498088345
 30
0.0
 40
6.0
  1
6'-11 1/12"
  7
ARIAL
 72
     1
 11
606.3368885501985
 21
382.985498088345
 31
0.0
100
AcDbText
  0
TEXT
  5
1212
330
2
100
AcDbEntity
  8
0
100
AcDbText
 10
533.5460486876638
 20
382.985498088345
 30
0.0
 40
6.0
  1
AW2-36
  7
ARIAL
 72
     1
 11
548.6790636944851
 21
382.985498088345
 31
0.0
100
AcDbText
  0
TEXT
  5
1213
330
2
100
AcDbEntity
  8
0
100
AcDbText
 10
533.5460486876638
 20
420.4969277248637
 30
0.0
 40
6.0
  1
AW2-26
  7
ARIAL
 72
     1
 11
548.6790636944851
 21
420.4969277248637
 31
0.0
100
AcDbText
  0
TEXT
  5
1214
330
2
100
AcDbEntity
  8
0
100
AcDbText
 10
533.5460486876638
 20
408.4969277248637
 30
0.0
 40
6.0
  1
AW2-30
  7
ARIAL
 72
     1
 11
548.6790636944851
 21
408.4969277248637
 31
0.0
100
AcDbText
  0
TEXT
  5
1215
330
2
100
AcDbEntity
  8
0
100
AcDbText
 10
582.8425632502623
 20
446.0139765655757
 30
0.0
 40
6.0
  1
(Frame Size)
  7
ARIAL
 72
     1
 11
607.059480030617
 21
446.0139765655757
 31
0.0
100
AcDbText
  0
TEXT
  5
1216
330
2
100
AcDbEntity
  8
0
100
AcDbText
 10
575.8480202761832
 20
454.998318637461
 30
0.0
 40
6.0
  1
Jamb Dimension
  7
ARIAL
 72
     1
 11
607.059480030617
 21
454.998318637461
 31
0.0
100
AcDbText
  0
TEXT
  5
1217
330
2
100
AcDbEntity
  8
0
100
AcDbText
 10
539.1265398199967
 20
454.998318637461
 30
0.0
 40
6.0
  1
Base
  7
ARIAL
 72
     1
 11
548.6790636944851
 21
454.998318637461
 31
0.0
100
AcDbText
  0
TEXT
  5
1218
330
2
100
AcDbEntity
  8
0
100
AcDbText
 10
538.659964103762
 20
446.0139765655757
 30
0.0
 40
6.0
  1
Code
  7
ARIAL
 72
     1
 11
548.6790636944851
 21
446.0139765655757
 31
0.0
100
AcDbText
  0
TEXT
  5
1219
330
2
100
AcDbEntity
  8
0
100
AcDbText
 10
663.1886269005043
 20
446.0139765655757
 30
0.0
 40
6.0
  1
Opening
  7
ARIAL
 72
     1
 11
679.0337837899996
 21
446.0139765655757
 31
0.0
100
AcDbText
  0
TEXT
  5
121A
330
2
100
AcDbEntity
  8
0
100
AcDbText
 10
666.6838520028236
 20
454.998318637461
 30
0.0
 40
6.0
  1
Rough
  7
ARIAL
 72
     1
 11
679.0337837899996
 21
454.998318637461
 31
0.0
100
AcDbText
  0
LINE
  5
121B
330
2
100
AcDbEntity
  8
0
100
AcDbLine
 10
713.3514312984679
 20
465.5389907996404
 30
0.0
 11
713.3514312984679
 21
344.0275611631217
 31
0.0
  0
TEXT
  5
121C
330
2
100
AcDbEntity
  8
0
100
AcDbText
 10
740.1971706961673
 20
382.985498088345
 30
0.0
 40
6.0
  1
2134
  7
ARIAL
 72
     1
 11
749.5204994819791
 21
382.985498088345
 31
0.0
100
AcDbText
  0
TEXT
  5
121D
330
2
100
AcDbEntity
  8
0
100
AcDbText
 10
738.3551550293167
 20
454.998318637461
 30
0.0
 40
6.0
  1
Metric
  7
ARIAL
 72
     1
 11
749.7637498451421
 21
454.998318637461
 31
0.0
100
AcDbText
  0
TEXT
  5
121E
330
2
100
AcDbEntity
  8
0
100
AcDbText
 10
730.2105438424136
 20
446.0139765655757
 30
0.0
 40
6.0
  1
R.O. (mm)
  7
ARIAL
 72
     1
 11
749.7637498451421
 21
446.0139765655757
 31
0.0
100
AcDbText
  0
TEXT
  5
121F
330
2
100
AcDbEntity
  8
0
100
AcDbText
 10
56.17475148028526
 20
104.5585750513783
 30
0.0
 40
6.0
  1
7'-6"
 50
90.0
  7
ARIAL
 72
     1
 11
53.17475148028526
 21
112.9037319408736
 31
0.0
100
AcDbText
 73
     2
  0
TEXT
  5
1220
330
2
100
AcDbEntity
  8
0
100
AcDbText
 10
56.17475148028525
 20
206.7504509300115
 30
0.0
 40
6.0
  1
6'-6"
 50
90.0
  7
ARIAL
 72
     1
 11
53.17475148028525
 21
215.0956078195068
 31
0.0
100
AcDbText
 73
     2
  0
LINE
  5
1221
330
2
100
AcDbEntity
  8
0
100
AcDbLine
 10
391.1747514802848
 20
515.632008963621
 30
0.0
 11
35.17475148028525
 21
515.632008963621
 31
0.0
  0
LINE
  5
1222
330
2
100
AcDbEntity
  8
0
100
AcDbLine
 10
391.1747514802848
 20
503.632008963621
 30
0.0
 11
47.17475148028525
 21
503.632008963621
 31
0.0
  0
TEXT
  5
1223
330
2
100
AcDbEntity
  8
0
100
AcDbText
 10
56.17475148028525
 20
304.6875410878811
 30
0.0
 40
6.0
  1
7'-0"
 50
90.0
  7
ARIAL
 72
     1
 11
53.17475148028525
 21
313.0326979773763
 31
0.0
100
AcDbText
 73
     2
  0
TEXT
  5
1224
330
2
100
AcDbEntity
  8
0
100
AcDbText
 10
56.17475148028525
 20
402.9305846331722
 30
0.0
 40
6.0
  1
6'-0"
 50
90.0
  7
ARIAL
 72
     1
 11
53.17475148028525
 21
411.2757415226674
 31
0.0
100
AcDbText
 73
     2
  0
TEXT
  5
1225
330
2
100
AcDbEntity
  8
0
100
AcDbText
 10
42.18581786526734
 20
506.5899458888443
 30
0.0
 40
6.0
  1
Jamb Dimension
  7
ARIAL
100
AcDbText
  0
TEXT
  5
1226
330
2
100
AcDbEntity
  8
0
100
AcDbText
 10
36.94630335583425
 20
521.2958289351045
 30
0.0
 40
8.0
  1
Awning Picture Combinations
  7
ARIAL
100
AcDbText
  0
TEXT
  5
1227
330
2
100
AcDbEntity
  8
0
100
AcDbText
 10
44.17475148028457
 20
393.6093022320808
 30
0.0
 40
6.0
  1
5'-11 1/2"
 50
90.0
  7
ARIAL
 72
     1
 11
41.17475148028457
 21
411.2757415226674
 31
0.0
100
AcDbText
 73
     2
  0
LINE
  5
1228
330
2
100
AcDbEntity
  8
0
100
AcDbLine
 10
35.17475148028525
 20
515.632008963621
 30
0.0
 11
35.17475148028592
 21
71.12060168697644
 31
0.0
  0
LINE
  5
1229
330
2
100
AcDbEntity
  8
0
100
AcDbLine
 10
47.17475148028525
 20
503.632008963621
 30
0.0
 11
47.17475148028525
 21
71.12060168697644
 31
0.0
  0
TEXT
  5
122A
330
2
100
AcDbEntity
  8
0
100
AcDbText
 10
44.17475148028458
 20
97.56812484673988
 30
0.0
 40
6.0
  1
7'-5 1/2"
 50
90.0
  7
ARIAL
 72
     1
 11
41.17475148028458
 21
112.9037319408736
 31
0.0
100
AcDbText
 73
     2
  0
TEXT
  5
122B
330
2
100
AcDbEntity
  8
0
100
AcDbText
 10
44.17475148028457
 20
295.3662586867896
 30
0.0
 40
6.0
  1
6'-11 1/2"
 50
90.0
  7
ARIAL
 72
     1
 11
41.17475148028457
 21
313.0326979773763
 31
0.0
100
AcDbText
 73
     2
  0
TEXT
  5
122C
330
2
100
AcDbEntity
  8
0
100
AcDbText
 10
44.17475148028457
 20
199.7600007253731
 30
0.0
 40
6.0
  1
6'-5 1/2"
 50
90.0
  7
ARIAL
 72
     1
 11
41.17475148028457
 21
215.0956078195068
 31
0.0
100
AcDbText
 73
     2
  0
TEXT
  5
122D
330
2
100
AcDbEntity
  8
0
100
AcDbText
 10
80.17475148028593
 20
375.4455914544546
 30
0.0
 40
6.0
  1
18 1/16"  - 42 1/16"
 50
90.0
  7
ARIAL
 72
     1
 11
77.17475148028593
 21
411.2757415226674
 31
0.0
100
AcDbText
 73
     2
  0
TEXT
  5
122E
330
2
100
AcDbEntity
  8
0
100
AcDbText
 10
68.17475148028525
 20
401.9524127368557
 30
0.0
 40
6.0
  1
1829
 50
90.0
  7
ARIAL
 72
     1
 11
65.17475148028525
 21
411.2757415226674
 31
0.0
100
AcDbText
 73
     2
  0
LINE
  5
122F
330
2
100
AcDbEntity
  8
0
100
AcDbLine
 10
83.17475148028527
 20
467.632008963621
 30
0.0
 11
83.17475148028527
 21
71.12060168697644
 31
0.0
  0
LINE
  5
1230
330
2
100
AcDbEntity
  8
0
100
AcDbLine
 10
71.17475148028525
 20
479.632008963621
 30
0.0
 11
71.17475148028525
 21
71.12060168697644
 31
0.0
  0
LINE
  5
1231
330
2
100
AcDbEntity
  8
0
100
AcDbLine
 10
59.17475148028525
 20
491.632008963621
 30
0.0
 11
59.17475148028592
 21
71.12060168697644
 31
0.0
  0
TEXT
  5
1232
330
2
100
AcDbEntity
  8
0
100
AcDbText
 10
156.9397583015672
 20
61.9691906074504
 30
0.0
 40
6.0
  1
305026
  7
ARIAL
 72
     1
 11
170.9247514802848
 21
61.9691906074504
 31
0.0
100
AcDbText
  0
TEXT
  5
1233
330
2
100
AcDbEntity
  8
0
100
AcDbText
 10
80.17475148028595
 20
78.23797477852705
 30
0.0
 40
6.0
  1
24 1/16" - 54 1/16"
 50
90.0
  7
ARIAL
 72
     1
 11
77.17475148028595
 21
112.9037319408736
 31
0.0
100
AcDbText
 73
     2
  0
TEXT
  5
1234
330
2
100
AcDbEntity
  8
0
100
AcDbText
 10
68.17475148028527
 20
103.5804031550618
 30
0.0
 40
6.0
  1
2286
 50
90.0
  7
ARIAL
 72
     1
 11
65.17475148028527
 21
112.9037319408736
 31
0.0
100
AcDbText
 73
     2
  0
TEXT
  5
1235
330
2
100
AcDbEntity
  8
0
100
AcDbText
 10
156.9397583015672
 20
169.4691906074504
 30
0.0
 40
6.0
  1
304026
  7
ARIAL
 72
     1
 11
170.9247514802848
 21
169.4691906074504
 31
0.0
100
AcDbText
  0
TEXT
  5
1236
330
2
100
AcDbEntity
  8
0
100
AcDbText
 10
275.9397583015672
 20
61.9691906074504
 30
0.0
 40
6.0
  1
405026
  7
ARIAL
 72
     1
 11
289.9247514802848
 21
61.9691906074504
 31
0.0
100
AcDbText
  0
TEXT
  5
1237
330
2
100
AcDbEntity
  8
0
100
AcDbText
 10
213.4397583015672
 20
61.9691906074504
 30
0.0
 40
6.0
  1
365026
  7
ARIAL
 72
     1
 11
227.4247514802848
 21
61.9691906074504
 31
0.0
100
AcDbText
  0
TEXT
  5
1238
330
2
100
AcDbEntity
  8
0
100
AcDbText
 10
347.3086548918242
 20
61.9691906074504
 30
0.0
 40
6.0
  1
505026
  7
ARIAL
 72
     1
 11
361.2936480705418
 21
61.9691906074504
 31
0.0
100
AcDbText
  0
TEXT
  5
1239
330
2
100
AcDbEntity
  8
0
100
AcDbText
 10
275.9397583015672
 20
169.4691906074504
 30
0.0
 40
6.0
  1
404026
  7
ARIAL
 72
     1
 11
289.9247514802848
 21
169.4691906074504
 31
0.0
100
AcDbText
  0
TEXT
  5
123A
330
2
100
AcDbEntity
  8
0
100
AcDbText
 10
213.4397583015672
 20
169.4691906074504
 30
0.0
 40
6.0
  1
364026
  7
ARIAL
 72
     1
 11
227.4247514802848
 21
169.4691906074504
 31
0.0
100
AcDbText
  0
TEXT
  5
123B
330
2
100
AcDbEntity
  8
0
100
AcDbText
 10
347.3086548918242
 20
169.4691906074504
 30
0.0
 40
6.0
  1
504026
  7
ARIAL
 72
     1
 11
361.2936480705418
 21
169.4691906074504
 31
0.0
100
AcDbText
  0
TEXT
  5
123C
330
2
100
AcDbEntity
  8
0
100
AcDbText
 10
80.17475148028593
 20
278.3669408150298
 30
0.0
 40
6.0
  1
18 1/16" - 54 1/16"
 50
90.0
  7
ARIAL
 72
     1
 11
77.17475148028593
 21
313.0326979773763
 31
0.0
100
AcDbText
 73
     2
  0
TEXT
  5
123D
330
2
100
AcDbEntity
  8
0
100
AcDbText
 10
80.17475148028593
 20
180.4298506571602
 30
0.0
 40
6.0
  1
24 1/16" - 42 1/16"
 50
90.0
  7
ARIAL
 72
     1
 11
77.17475148028593
 21
215.0956078195068
 31
0.0
100
AcDbText
 73
     2
  0
TEXT
  5
123E
330
2
100
AcDbEntity
  8
0
100
AcDbText
 10
68.17475148028525
 20
205.772279033695
 30
0.0
 40
6.0
  1
1981
 50
90.0
  7
ARIAL
 72
     1
 11
65.17475148028525
 21
215.0956078195068
 31
0.0
100
AcDbText
 73
     2
  0
TEXT
  5
123F
330
2
100
AcDbEntity
  8
0
100
AcDbText
 10
156.9397583015672
 20
264.9691906074504
 30
0.0
 40
6.0
  1
305020
  7
ARIAL
 72
     1
 11
170.9247514802848
 21
264.9691906074504
 31
0.0
100
AcDbText
  0
TEXT
  5
1240
330
2
100
AcDbEntity
  8
0
100
AcDbText
 10
68.17475148028525
 20
303.7093691915646
 30
0.0
 40
6.0
  1
2134
 50
90.0
  7
ARIAL
 72
     1
 11
65.17475148028525
 21
313.0326979773763
 31
0.0
100
AcDbText
 73
     2
  0
TEXT
  5
1241
330
2
100
AcDbEntity
  8
0
100
AcDbText
 10
156.9397583015672
 20
366.4691906074504
 30
0.0
 40
6.0
  1
304020
  7
ARIAL
 72
     1
 11
170.9247514802848
 21
366.4691906074504
 31
0.0
100
AcDbText
  0
TEXT
  5
1242
330
2
100
AcDbEntity
  8
0
100
AcDbText
 10
275.9397583015672
 20
264.9691906074504
 30
0.0
 40
6.0
  1
405020
  7
ARIAL
 72
     1
 11
289.9247514802848
 21
264.9691906074504
 31
0.0
100
AcDbText
  0
TEXT
  5
1243
330
2
100
AcDbEntity
  8
0
100
AcDbText
 10
213.4397583015672
 20
264.9691906074504
 30
0.0
 40
6.0
  1
365020
  7
ARIAL
 72
     1
 11
227.4247514802848
 21
264.9691906074504
 31
0.0
100
AcDbText
  0
TEXT
  5
1244
330
2
100
AcDbEntity
  8
0
100
AcDbText
 10
347.3086548918242
 20
264.9691906074504
 30
0.0
 40
6.0
  1
505020
  7
ARIAL
 72
     1
 11
361.2936480705418
 21
264.9691906074504
 31
0.0
100
AcDbText
  0
TEXT
  5
1245
330
2
100
AcDbEntity
  8
0
100
AcDbText
 10
275.9397583015672
 20
366.4691906074504
 30
0.0
 40
6.0
  1
404020
  7
ARIAL
 72
     1
 11
289.9247514802848
 21
366.4691906074504
 31
0.0
100
AcDbText
  0
TEXT
  5
1246
330
2
100
AcDbEntity
  8
0
100
AcDbText
 10
213.4397583015672
 20
366.4691906074504
 30
0.0
 40
6.0
  1
364020
  7
ARIAL
 72
     1
 11
227.4247514802848
 21
366.4691906074504
 31
0.0
100
AcDbText
  0
TEXT
  5
1247
330
2
100
AcDbEntity
  8
0
100
AcDbText
 10
347.3086548918242
 20
366.4691906074504
 30
0.0
 40
6.0
  1
504020
  7
ARIAL
 72
     1
 11
361.2936480705418
 21
366.4691906074504
 31
0.0
100
AcDbText
  0
LINE
  5
1248
330
2
100
AcDbEntity
  8
0
100
AcDbLine
 10
391.1747514802848
 20
491.632008963621
 30
0.0
 11
59.17475148028525
 21
491.632008963621
 31
0.0
  0
LINE
  5
1249
330
2
100
AcDbEntity
  8
0
100
AcDbLine
 10
391.1747514802848
 20
479.632008963621
 30
0.0
 11
71.17475148028525
 21
479.632008963621
 31
0.0
  0
LINE
  5
124A
330
2
100
AcDbEntity
  8
0
100
AcDbLine
 10
391.1747514802848
 20
467.632008963621
 30
0.0
 11
83.17475148028527
 21
467.632008963621
 31
0.0
  0
TEXT
  5
124B
330
2
100
AcDbEntity
  8
0
100
AcDbText
 10
54.18581786526734
 20
494.5899458888443
 30
0.0
 40
6.0
  1
Rough Opening
  7
ARIAL
100
AcDbText
  0
TEXT
  5
124C
330
2
100
AcDbEntity
  8
0
100
AcDbText
 10
75.18993692548788
 20
470.5899458888443
 30
0.0
 40
6.0
  1
Glass Size
  7
ARIAL
100
AcDbText
  0
TEXT
  5
124D
330
2
100
AcDbEntity
  8
0
100
AcDbText
 10
63.18993692548788
 20
482.5899458888443
 30
0.0
 40
6.0
  1
Metric R.O. (mm)
  7
ARIAL
100
AcDbText
  0
TEXT
  5
124E
330
2
100
AcDbEntity
  8
0
100
AcDbText
 10
163.4074662798571
 20
494.632008963621
 30
0.0
 40
6.0
  1
3'-0"
  7
ARIAL
 72
     1
 11
171.7526231693523
 21
497.632008963621
 31
0.0
100
AcDbText
 73
     2
  0
TEXT
  5
124F
330
2
100
AcDbEntity
  8
0
100
AcDbText
 10
156.2819546836777
 20
470.632008963621
 30
0.0
 40
6.0
  1
30 1/16"
  7
ARIAL
 72
     1
 11
171.752623169353
 21
473.632008963621
 31
0.0
100
AcDbText
 73
     2
  0
TEXT
  5
1250
330
2
100
AcDbEntity
  8
0
100
AcDbText
 10
164.7601265799942
 20
482.632008963621
 30
0.0
 40
6.0
  1
914
  7
ARIAL
 72
     1
 11
171.752623169353
 21
485.632008963621
 31
0.0
100
AcDbText
 73
     2
  0
TEXT
  5
1251
330
2
100
AcDbEntity
  8
0
100
AcDbText
 10
154.0861838787657
 20
506.632008963621
 30
0.0
 40
6.0
  1
2'-11 1/2"
  7
ARIAL
 72
     1
 11
171.7526231693523
 21
509.632008963621
 31
0.0
100
AcDbText
 73
     2
  0
TEXT
  5
1252
330
2
100
AcDbEntity
  8
0
100
AcDbText
 10
219.5039143109147
 20
494.632008963621
 30
0.0
 40
6.0
  1
3'-6"
  7
ARIAL
 72
     1
 11
227.84907120041
 21
497.632008963621
 31
0.0
100
AcDbText
 73
     2
  0
TEXT
  5
1253
330
2
100
AcDbEntity
  8
0
100
AcDbText
 10
280.6993620646585
 20
494.632008963621
 30
0.0
 40
6.0
  1
4'-0"
  7
ARIAL
 72
     1
 11
289.0445189541537
 21
497.632008963621
 31
0.0
100
AcDbText
 73
     2
  0
TEXT
  5
1254
330
2
100
AcDbEntity
  8
0
100
AcDbText
 10
279.7211901683427
 20
482.632008963621
 30
0.0
 40
6.0
  1
1219
  7
ARIAL
 72
     1
 11
289.0445189541544
 21
485.632008963621
 31
0.0
100
AcDbText
 73
     2
  0
TEXT
  5
1255
330
2
100
AcDbEntity
  8
0
100
AcDbText
 10
273.5738504684791
 20
470.632008963621
 30
0.0
 40
6.0
  1
42 1/16"
  7
ARIAL
 72
     1
 11
289.0445189541544
 21
473.632008963621
 31
0.0
100
AcDbText
 73
     2
  0
TEXT
  5
1256
330
2
100
AcDbEntity
  8
0
100
AcDbText
 10
212.3784027147353
 20
470.632008963621
 30
0.0
 40
6.0
  1
36 1/16"
  7
ARIAL
 72
     1
 11
227.8490712004106
 21
473.632008963621
 31
0.0
100
AcDbText
 73
     2
  0
TEXT
  5
1257
330
2
100
AcDbEntity
  8
0
100
AcDbText
 10
218.5257424145989
 20
482.632008963621
 30
0.0
 40
6.0
  1
1067
  7
ARIAL
 72
     1
 11
227.8490712004106
 21
485.632008963621
 31
0.0
100
AcDbText
 73
     2
  0
TEXT
  5
1258
330
2
100
AcDbEntity
  8
0
100
AcDbText
 10
271.3780796635671
 20
506.632008963621
 30
0.0
 40
6.0
  1
3'-11 1/2"
  7
ARIAL
 72
     1
 11
289.0445189541537
 21
509.632008963621
 31
0.0
100
AcDbText
 73
     2
  0
TEXT
  5
1259
330
2
100
AcDbEntity
  8
0
100
AcDbText
 10
212.5134641062762
 20
506.632008963621
 30
0.0
 40
6.0
  1
3'-5 1/2"
  7
ARIAL
 72
     1
 11
227.84907120041
 21
509.632008963621
 31
0.0
100
AcDbText
 73
     2
  0
TEXT
  5
125A
330
2
100
AcDbEntity
  8
0
100
AcDbText
 10
352.3262917730158
 20
494.632008963621
 30
0.0
 40
6.0
  1
5'-0"
  7
ARIAL
 72
     1
 11
360.671448662511
 21
497.632008963621
 31
0.0
100
AcDbText
 73
     2
  0
TEXT
  5
125B
330
2
100
AcDbEntity
  8
0
100
AcDbText
 10
345.4651800235401
 20
470.632008963621
 30
0.0
 40
6.0
  1
54 1/16"
  7
ARIAL
 72
     1
 11
360.9358485092155
 21
473.632008963621
 31
0.0
100
AcDbText
 73
     2
  0
TEXT
  5
125C
330
2
100
AcDbEntity
  8
0
100
AcDbText
 10
351.3481198767
 20
482.632008963621
 30
0.0
 40
6.0
  1
1524
  7
ARIAL
 72
     1
 11
360.6714486625117
 21
485.632008963621
 31
0.0
100
AcDbText
 73
     2
  0
TEXT
  5
125D
330
2
100
AcDbEntity
  8
0
100
AcDbText
 10
343.0050093719244
 20
506.632008963621
 30
0.0
 40
6.0
  1
4'-11 1/2"
  7
ARIAL
 72
     1
 11
360.671448662511
 21
509.632008963621
 31
0.0
100
AcDbText
 73
     2
  0
LWPOLYLINE
  5
125E
330
2
100
AcDbEntity
  8
0
100
AcDbPolyline
 90
        4
 70
     1
 43
0.0
 10
574.9360373839817
 20
507.6843285421936
 10
574.9360373839817
 20
472.4343285421936
 10
539.6860373839817
 20
472.4343285421936
 10
539.6860373839817
 20
507.6843285421936
  0
LWPOLYLINE
  5
125F
330
2
100
AcDbEntity
  8
0
100
AcDbPolyline
 90
        4
 70
     1
 43
0.0
 10
570.1540373839817
 20
502.9023285421935
 10
570.1540373839817
 20
477.2163285421938
 10
544.4680373839817
 20
477.2163285421938
 10
544.4680373839817
 20
502.9023285421935
  0
LWPOLYLINE
  5
1260
330
2
100
AcDbEntity
  8
0
100
AcDbPolyline
 90
        4
 70
     1
 43
0.0
 10
573.8110373839817
 20
506.5593285421936
 10
573.8110373839817
 20
473.5593285421936
 10
540.8110373839817
 20
473.5593285421936
 10
540.8110373839817
 20
506.5593285421936
  0
LWPOLYLINE
  5
1261
330
2
100
AcDbEntity
  8
0
100
AcDbPolyline
 90
        4
 70
     1
 43
0.0
 10
610.9360373839817
 20
507.6843285421936
 10
610.9360373839817
 20
472.4343285421936
 10
575.6860373839817
 20
472.4343285421936
 10
575.6860373839817
 20
507.6843285421936
  0
LWPOLYLINE
  5
1262
330
2
100
AcDbEntity
  8
0
100
AcDbPolyline
 90
        4
 70
     1
 43
0.0
 10
606.1540373839817
 20
502.9023285421935
 10
606.1540373839817
 20
477.2163285421938
 10
580.4680373839817
 20
477.2163285421938
 10
580.4680373839817
 20
502.9023285421935
  0
LWPOLYLINE
  5
1263
330
2
100
AcDbEntity
  8
0
100
AcDbPolyline
 90
        4
 70
     1
 43
0.0
 10
609.8110373839817
 20
506.5593285421936
 10
609.8110373839817
 20
473.5593285421936
 10
576.8110373839817
 20
473.5593285421936
 10
576.8110373839817
 20
506.5593285421936
  0
LINE
  5
1264
330
2
100
AcDbEntity
  8
0
100
AcDbLine
 10
784.220933314189
 20
368.0275611631217
 30
0.0
 11
526.0942897634562
 21
368.0275611631217
 31
0.0
  0
TEXT
  5
1265
330
2
100
AcDbEntity
  8
0
100
AcDbText
 10
588.6704492596119
 20
358.985498088345
 30
0.0
 40
6.0
  1
8'-11 1/2"
  7
ARIAL
 72
     1
 11
606.3368885501985
 21
358.985498088345
 31
0.0
100
AcDbText
  0
TEXT
  5
1266
330
2
100
AcDbEntity
  8
0
100
AcDbText
 10
586.3396170631589
 20
370.985498088345
 30
0.0
 40
6.0
  1
7'-11 1/12"
  7
ARIAL
 72
     1
 11
606.3368885501985
 21
370.985498088345
 31
0.0
100
AcDbText
  0
TEXT
  5
1267
330
2
100
AcDbEntity
  8
0
100
AcDbText
 10
533.5460486876638
 20
358.985498088345
 30
0.0
 40
6.0
  1
AW2-46
  7
ARIAL
 72
     1
 11
548.6790636944851
 21
358.985498088345
 31
0.0
100
AcDbText
  0
TEXT
  5
1268
330
2
100
AcDbEntity
  8
0
100
AcDbText
 10
533.5460486876638
 20
370.985498088345
 30
0.0
 40
6.0
  1
AW2-40
  7
ARIAL
 72
     1
 11
548.6790636944851
 21
370.985498088345
 31
0.0
100
AcDbText
  0
TEXT
  5
1269
330
2
100
AcDbEntity
  8
0
100
AcDbText
 10
740.1971706961673
 20
358.985498088345
 30
0.0
 40
6.0
  1
2743
  7
ARIAL
 72
     1
 11
749.5204994819791
 21
358.985498088345
 31
0.0
100
AcDbText
  0
TEXT
  5
126A
330
2
100
AcDbEntity
  8
0
100
AcDbText
 10
740.1971706961673
 20
370.985498088345
 30
0.0
 40
6.0
  1
2438
  7
ARIAL
 72
     1
 11
749.5204994819791
 21
370.985498088345
 31
0.0
100
AcDbText
  0
LINE
  5
126B
330
2
100
AcDbEntity
  8
0
100
AcDbLine
 10
784.220933314189
 20
356.0275611631217
 30
0.0
 11
526.0942897634562
 21
356.0275611631217
 31
0.0
  0
LINE
  5
126C
330
2
100
AcDbEntity
  8
0
100
AcDbLine
 10
784.2209333141888
 20
344.0275611631217
 30
0.0
 11
526.0942897634562
 21
344.0275611631217
 31
0.0
  0
TEXT
  5
126D
330
2
100
AcDbEntity
  8
0
100
AcDbText
 10
588.6704492596119
 20
346.985498088345
 30
0.0
 40
6.0
  1
9'-11 1/2"
  7
ARIAL
 72
     1
 11
606.3368885501985
 21
346.985498088345
 31
0.0
100
AcDbText
  0
TEXT
  5
126E
330
2
100
AcDbEntity
  8
0
100
AcDbText
 10
533.5460486876638
 20
346.985498088345
 30
0.0
 40
6.0
  1
AW2-50
  7
ARIAL
 72
     1
 11
548.6790636944851
 21
346.985498088345
 31
0.0
100
AcDbText
  0
TEXT
  5
126F
330
2
100
AcDbEntity
  8
0
100
AcDbText
 10
740.1971706961673
 20
346.985498088345
 30
0.0
 40
6.0
  1
3048
  7
ARIAL
 72
     1
 11
749.5204994819791
 21
346.985498088345
 31
0.0
100
AcDbText
  0
LINE
  5
1270
330
2
100
AcDbEntity
  8
0
100
AcDbLine
 10
71.17475148028481
 20
904.9152318832046
 30
0.0
 11
71.17475148028483
 21
565.9152318832047
 31
0.0
  0
LINE
  5
1271
330
2
100
AcDbEntity
  8
0
100
AcDbLine
 10
35.17475148028482
 20
940.9152318832046
 30
0.0
 11
35.17475148028542
 21
565.9152318832047
 31
0.0
  0
LINE
  5
1272
330
2
100
AcDbEntity
  8
0
100
AcDbLine
 10
47.17475148028481
 20
928.9152318832046
 30
0.0
 11
47.17475148028541
 21
565.9152318832047
 31
0.0
  0
LINE
  5
1273
330
2
100
AcDbEntity
  8
0
100
AcDbLine
 10
59.17475148028481
 20
916.9152318832046
 30
0.0
 11
59.17475148028541
 21
565.9152318832047
 31
0.0
  0
LINE
  5
1274
330
2
100
AcDbEntity
  8
0
100
AcDbLine
 10
83.17475148028481
 20
892.9152318832046
 30
0.0
 11
83.17475148028483
 21
565.9152318832047
 31
0.0
  0
TEXT
  5
1275
330
2
100
AcDbEntity
  8
0
100
AcDbText
 10
418.0889199666676
 20
931.9152318832046
 30
0.0
 40
6.0
  1
3'-11 1/2"
  7
ARIAL
 72
     1
 11
435.7553592572542
 21
934.9152318832046
 31
0.0
100
AcDbText
 73
     2
  0
TEXT
  5
1276
330
2
100
AcDbEntity
  8
0
100
AcDbText
 10
36.94630335583382
 20
949.5118947489053
 30
0.0
 40
8.0
  1
Awning Windows (9202)
  7
ARIAL
100
AcDbText
  0
LINE
  5
1277
330
2
100
AcDbEntity
  8
0
100
AcDbLine
 10
609.1747514802847
 20
892.9152318832045
 30
0.0
 11
83.17475148028481
 21
892.9152318832046
 31
0.0
  0
LINE
  5
1278
330
2
100
AcDbEntity
  8
0
100
AcDbLine
 10
609.1747514802847
 20
940.9152318832045
 30
0.0
 11
35.17475148028482
 21
940.9152318832046
 31
0.0
  0
LINE
  5
1279
330
2
100
AcDbEntity
  8
0
100
AcDbLine
 10
609.1747514802847
 20
928.9152318832045
 30
0.0
 11
47.17475148028481
 21
928.9152318832046
 31
0.0
  0
LINE
  5
127A
330
2
100
AcDbEntity
  8
0
100
AcDbLine
 10
609.1747514802847
 20
916.9152318832045
 30
0.0
 11
59.17475148028481
 21
916.9152318832046
 31
0.0
  0
LINE
  5
127B
330
2
100
AcDbEntity
  8
0
100
AcDbLine
 10
609.1747514802847
 20
904.9152318832031
 30
0.0
 11
71.17475148028481
 21
904.9152318832046
 31
0.0
  0
TEXT
  5
127C
330
2
100
AcDbEntity
  8
0
100
AcDbText
 10
44.17475148028482
 20
573.7750609892433
 30
0.0
 40
6.0
  1
3'-5 1/2"
 50
90.0
  7
ARIAL
 72
     1
 11
41.17475148028482
 21
589.110668083377
 31
0.0
100
AcDbText
 73
     2
  0
TEXT
  5
127D
330
2
100
AcDbEntity
  8
0
100
AcDbText
 10
56.17475148028481
 20
580.7655111938818
 30
0.0
 40
6.0
  1
3'-6"
 50
90.0
  7
ARIAL
 72
     1
 11
53.17475148028481
 21
589.110668083377
 31
0.0
100
AcDbText
 73
     2
  0
TEXT
  5
127E
330
2
100
AcDbEntity
  8
0
100
AcDbText
 10
68.17475148028481
 20
577.5562137417674
 30
0.0
 40
6.0
  1
1067
 50
90.0
  7
ARIAL
 72
     1
 11
65.17475148028481
 21
586.8795425275791
 31
0.0
100
AcDbText
 73
     2
  0
TEXT
  5
127F
330
2
100
AcDbEntity
  8
0
100
AcDbText
 10
80.1747514802855
 20
573.6399995977017
 30
0.0
 40
6.0
  1
36 1/16"
 50
90.0
  7
ARIAL
 72
     1
 11
77.1747514802855
 21
589.110668083377
 31
0.0
100
AcDbText
 73
     2
  0
TEXT
  5
1280
330
2
100
AcDbEntity
  8
0
100
AcDbText
 10
363.6580898971866
 20
559.2638208036785
 30
0.0
 40
6.0
  1
3636
  7
ARIAL
 72
     1
 11
372.9814186829983
 21
559.2638208036785
 31
0.0
100
AcDbText
  0
TEXT
  5
1281
330
2
100
AcDbEntity
  8
0
100
AcDbText
 10
44.17475148028483
 20
695.4976414788683
 30
0.0
 40
6.0
  1
2'-11 1/2"
 50
90.0
  7
ARIAL
 72
     1
 11
41.17475148028483
 21
713.1640807694549
 31
0.0
100
AcDbText
 73
     2
  0
TEXT
  5
1282
330
2
100
AcDbEntity
  8
0
100
AcDbText
 10
68.17475148028483
 20
705.380096065741
 30
0.0
 40
6.0
  1
914
 50
90.0
  7
ARIAL
 72
     1
 11
65.17475148028483
 21
712.3725926550998
 31
0.0
100
AcDbText
 73
     2
  0
TEXT
  5
1283
330
2
100
AcDbEntity
  8
0
100
AcDbText
 10
56.17475148028483
 20
704.8189238799597
 30
0.0
 40
6.0
  1
3'-0"
 50
90.0
  7
ARIAL
 72
     1
 11
53.17475148028483
 21
713.1640807694549
 31
0.0
100
AcDbText
 73
     2
  0
TEXT
  5
1284
330
2
100
AcDbEntity
  8
0
100
AcDbText
 10
80.17475148028551
 20
697.6934122837796
 30
0.0
 40
6.0
  1
30 1/16"
 50
90.0
  7
ARIAL
 72
     1
 11
77.17475148028551
 21
713.1640807694549
 31
0.0
100
AcDbText
 73
     2
  0
TEXT
  5
1285
330
2
100
AcDbEntity
  8
0
100
AcDbText
 10
363.6580898971866
 20
685.2638208036785
 30
0.0
 40
6.0
  1
3630
  7
ARIAL
 72
     1
 11
372.9814186829983
 21
685.2638208036785
 31
0.0
100
AcDbText
  0
TEXT
  5
1286
330
2
100
AcDbEntity
  8
0
100
AcDbText
 10
427.1580898971866
 20
685.2638208036785
 30
0.0
 40
6.0
  1
4030
  7
ARIAL
 72
     1
 11
436.4814186829983
 21
685.2638208036785
 31
0.0
100
AcDbText
  0
TEXT
  5
1287
330
2
100
AcDbEntity
  8
0
100
AcDbText
 10
363.6580898971866
 20
744.7638208036785
 30
0.0
 40
6.0
  1
3626
  7
ARIAL
 72
     1
 11
372.9814186829983
 21
744.7638208036785
 31
0.0
100
AcDbText
  0
TEXT
  5
1288
330
2
100
AcDbEntity
  8
0
100
AcDbText
 10
427.1580898971866
 20
744.7638208036785
 30
0.0
 40
6.0
  1
4026
  7
ARIAL
 72
     1
 11
436.4814186829983
 21
744.7638208036785
 31
0.0
100
AcDbText
  0
TEXT
  5
1289
330
2
100
AcDbEntity
  8
0
100
AcDbText
 10
44.17475148028482
 20
754.2476611763465
 30
0.0
 40
6.0
  1
2'-5 1/2"
 50
90.0
  7
ARIAL
 72
     1
 11
41.17475148028482
 21
769.5832682704802
 31
0.0
100
AcDbText
 73
     2
  0
TEXT
  5
128A
330
2
100
AcDbEntity
  8
0
100
AcDbText
 10
68.17475148028481
 20
762.5907716811214
 30
0.0
 40
6.0
  1
762
 50
90.0
  7
ARIAL
 72
     1
 11
65.17475148028481
 21
769.5832682704802
 31
0.0
100
AcDbText
 73
     2
  0
TEXT
  5
128B
330
2
100
AcDbEntity
  8
0
100
AcDbText
 10
56.17475148028481
 20
761.238111380985
 30
0.0
 40
6.0
  1
2'-6"
 50
90.0
  7
ARIAL
 72
     1
 11
53.17475148028481
 21
769.5832682704802
 31
0.0
100
AcDbText
 73
     2
  0
TEXT
  5
128C
330
2
100
AcDbEntity
  8
0
100
AcDbText
 10
80.1747514802855
 20
754.1125997848048
 30
0.0
 40
6.0
  1
24 1/16"
 50
90.0
  7
ARIAL
 72
     1
 11
77.1747514802855
 21
769.5832682704802
 31
0.0
100
AcDbText
 73
     2
  0
TEXT
  5
128D
330
2
100
AcDbEntity
  8
0
100
AcDbText
 10
44.17475148028482
 20
801.9934565870739
 30
0.0
 40
6.0
  1
1'-11 1/2"
 50
90.0
  7
ARIAL
 72
     1
 11
41.17475148028482
 21
819.6598958776605
 31
0.0
100
AcDbText
 73
     2
  0
TEXT
  5
128E
330
2
100
AcDbEntity
  8
0
100
AcDbText
 10
68.17475148028481
 20
812.6673992883017
 30
0.0
 40
6.0
  1
610
 50
90.0
  7
ARIAL
 72
     1
 11
65.17475148028481
 21
819.6598958776605
 31
0.0
100
AcDbText
 73
     2
  0
TEXT
  5
128F
330
2
100
AcDbEntity
  8
0
100
AcDbText
 10
56.17475148028481
 20
811.3147389881652
 30
0.0
 40
6.0
  1
2'-0"
 50
90.0
  7
ARIAL
 72
     1
 11
53.17475148028481
 21
819.6598958776605
 31
0.0
100
AcDbText
 73
     2
  0
TEXT
  5
1290
330
2
100
AcDbEntity
  8
0
100
AcDbText
 10
80.1747514802855
 20
804.1892273919851
 30
0.0
 40
6.0
  1
18 1/16"
 50
90.0
  7
ARIAL
 72
     1
 11
77.1747514802855
 21
819.6598958776605
 31
0.0
100
AcDbText
 73
     2
  0
TEXT
  5
1291
330
2
100
AcDbEntity
  8
0
100
AcDbText
 10
427.1580898971866
 20
798.2638208036785
 30
0.0
 40
6.0
  1
4020
  7
ARIAL
 72
     1
 11
436.4814186829983
 21
798.2638208036785
 31
0.0
100
AcDbText
  0
TEXT
  5
1292
330
2
100
AcDbEntity
  8
0
100
AcDbText
 10
363.6580898971866
 20
798.2638208036785
 30
0.0
 40
6.0
  1
3620
  7
ARIAL
 72
     1
 11
372.9814186829983
 21
798.2638208036785
 31
0.0
100
AcDbText
  0
TEXT
  5
1293
330
2
100
AcDbEntity
  8
0
100
AcDbText
 10
75.18993692548813
 20
895.8731688084279
 30
0.0
 40
6.0
  1
Glass Size
  7
ARIAL
100
AcDbText
  0
TEXT
  5
1294
330
2
100
AcDbEntity
  8
0
100
AcDbText
 10
63.18993692548813
 20
907.8731688084279
 30
0.0
 40
6.0
  1
Metric R.O. (mm)
  7
ARIAL
100
AcDbText
  0
TEXT
  5
1295
330
2
100
AcDbEntity
  8
0
100
AcDbText
 10
54.18581786526758
 20
919.8731688084279
 30
0.0
 40
6.0
  1
Rough Opening
  7
ARIAL
100
AcDbText
  0
TEXT
  5
1296
330
2
100
AcDbEntity
  8
0
100
AcDbText
 10
42.18581786526759
 20
931.8731688084279
 30
0.0
 40
6.0
  1
Jamb Dimension
  7
ARIAL
100
AcDbText
  0
TEXT
  5
1297
330
2
100
AcDbEntity
  8
0
100
AcDbText
 10
358.4781886628085
 20
931.9152318832046
 30
0.0
 40
6.0
  1
3'-5 1/2"
  7
ARIAL
 72
     1
 11
373.8137957569422
 21
934.9152318832046
 31
0.0
100
AcDbText
 73
     2
  0
TEXT
  5
1298
330
2
100
AcDbEntity
  8
0
100
AcDbText
 10
358.3431272712669
 20
895.9152318832046
 30
0.0
 40
6.0
  1
36 1/16"
  7
ARIAL
 72
     1
 11
373.8137957569422
 21
898.9152318832046
 31
0.0
100
AcDbText
 73
     2
  0
TEXT
  5
1299
330
2
100
AcDbEntity
  8
0
100
AcDbText
 10
364.4904669711305
 20
907.9152318832046
 30
0.0
 40
6.0
  1
1067
  7
ARIAL
 72
     1
 11
373.8137957569422
 21
910.9152318832046
 31
0.0
100
AcDbText
 73
     2
  0
TEXT
  5
129A
330
2
100
AcDbEntity
  8
0
100
AcDbText
 10
365.468638867447
 20
919.9152318832046
 30
0.0
 40
6.0
  1
3'-6"
  7
ARIAL
 72
     1
 11
373.8137957569422
 21
922.9152318832046
 31
0.0
100
AcDbText
 73
     2
  0
TEXT
  5
129B
330
2
100
AcDbEntity
  8
0
100
AcDbText
 10
426.4320304714425
 20
907.9152318832046
 30
0.0
 40
6.0
  1
1219
  7
ARIAL
 72
     1
 11
435.7553592572542
 21
910.9152318832046
 31
0.0
100
AcDbText
 73
     2
  0
TEXT
  5
129C
330
2
100
AcDbEntity
  8
0
100
AcDbText
 10
420.2846907715789
 20
895.9152318832046
 30
0.0
 40
6.0
  1
42 1/16"
  7
ARIAL
 72
     1
 11
435.7553592572542
 21
898.9152318832046
 31
0.0
100
AcDbText
 73
     2
  0
TEXT
  5
129D
330
2
100
AcDbEntity
  8
0
100
AcDbText
 10
427.410202367759
 20
919.9152318832046
 30
0.0
 40
6.0
  1
4'-0"
  7
ARIAL
 72
     1
 11
435.7553592572542
 21
922.9152318832046
 31
0.0
100
AcDbText
 73
     2
  0
TEXT
  5
129E
330
2
100
AcDbEntity
  8
0
100
AcDbText
 10
570.1580898971865
 20
744.7638208036785
 30
0.0
 40
6.0
  1
5026
  7
ARIAL
 72
     1
 11
579.4814186829983
 21
744.7638208036785
 31
0.0
100
AcDbText
  0
TEXT
  5
129F
330
2
100
AcDbEntity
  8
0
100
AcDbText
 10
570.1580898971865
 20
685.2638208036785
 30
0.0
 40
6.0
  1
5030
  7
ARIAL
 72
     1
 11
579.4814186829983
 21
685.2638208036785
 31
0.0
100
AcDbText
  0
TEXT
  5
12A0
330
2
100
AcDbEntity
  8
0
100
AcDbText
 10
495.6580898971866
 20
685.2638208036785
 30
0.0
 40
6.0
  1
4630
  7
ARIAL
 72
     1
 11
504.9814186829983
 21
685.2638208036785
 31
0.0
100
AcDbText
  0
TEXT
  5
12A1
330
2
100
AcDbEntity
  8
0
100
AcDbText
 10
495.6580898971866
 20
744.7638208036785
 30
0.0
 40
6.0
  1
4626
  7
ARIAL
 72
     1
 11
504.9814186829983
 21
744.7638208036785
 31
0.0
100
AcDbText
  0
TEXT
  5
12A2
330
2
100
AcDbEntity
  8
0
100
AcDbText
 10
570.1580898971865
 20
798.2638208036785
 30
0.0
 40
6.0
  1
5020
  7
ARIAL
 72
     1
 11
579.4814186829983
 21
798.2638208036785
 31
0.0
100
AcDbText
  0
TEXT
  5
12A3
330
2
100
AcDbEntity
  8
0
100
AcDbText
 10
495.6580898971866
 20
798.2638208036785
 30
0.0
 40
6.0
  1
4620
  7
ARIAL
 72
     1
 11
504.9814186829983
 21
798.2638208036785
 31
0.0
100
AcDbText
  0
TEXT
  5
12A4
330
2
100
AcDbEntity
  8
0
100
AcDbText
 10
561.9102917601845
 20
931.9152318832046
 30
0.0
 40
6.0
  1
4'-11 1/2"
  7
ARIAL
 72
     1
 11
579.5767310507711
 21
934.9152318832046
 31
0.0
100
AcDbText
 73
     2
  0
TEXT
  5
12A5
330
2
100
AcDbEntity
  8
0
100
AcDbText
 10
570.2534022649593
 20
907.9152318832046
 30
0.0
 40
6.0
  1
1524
  7
ARIAL
 72
     1
 11
579.5767310507711
 21
910.9152318832046
 31
0.0
100
AcDbText
 73
     2
  0
TEXT
  5
12A6
330
2
100
AcDbEntity
  8
0
100
AcDbText
 10
564.1060625650957
 20
895.9152318832046
 30
0.0
 40
6.0
  1
54 1/16"
  7
ARIAL
 72
     1
 11
579.5767310507711
 21
898.9152318832046
 31
0.0
100
AcDbText
 73
     2
  0
TEXT
  5
12A7
330
2
100
AcDbEntity
  8
0
100
AcDbText
 10
571.2315741612758
 20
919.9152318832046
 30
0.0
 40
6.0
  1
5'-0"
  7
ARIAL
 72
     1
 11
579.5767310507711
 21
922.9152318832046
 31
0.0
100
AcDbText
 73
     2
  0
TEXT
  5
12A8
330
2
100
AcDbEntity
  8
0
100
AcDbText
 10
489.2451167457167
 20
931.9152318832046
 30
0.0
 40
6.0
  1
4'-5 1/2"
  7
ARIAL
 72
     1
 11
504.5807238398504
 21
934.9152318832046
 31
0.0
100
AcDbText
 73
     2
  0
TEXT
  5
12A9
330
2
100
AcDbEntity
  8
0
100
AcDbText
 10
489.1100553541751
 20
895.9152318832046
 30
0.0
 40
6.0
  1
48 1/16"
  7
ARIAL
 72
     1
 11
504.5807238398504
 21
898.9152318832046
 31
0.0
100
AcDbText
 73
     2
  0
TEXT
  5
12AA
330
2
100
AcDbEntity
  8
0
100
AcDbText
 10
495.2573950540387
 20
907.9152318832046
 30
0.0
 40
6.0
  1
1372
  7
ARIAL
 72
     1
 11
504.5807238398504
 21
910.9152318832046
 31
0.0
100
AcDbText
 73
     2
  0
TEXT
  5
12AB
330
2
100
AcDbEntity
  8
0
100
AcDbText
 10
496.2355669503552
 20
919.9152318832046
 30
0.0
 40
6.0
  1
4'-6"
  7
ARIAL
 72
     1
 11
504.5807238398504
 21
922.9152318832046
 31
0.0
100
AcDbText
 73
     2
  0
TEXT
  5
12AC
330
2
100
AcDbEntity
  8
0
100
AcDbText
 10
155.6014226944731
 20
559.2638208036785
 30
0.0
 40
6.0
  1
2036
  7
ARIAL
 72
     1
 11
164.9247514802848
 21
559.2638208036785
 31
0.0
100
AcDbText
  0
TEXT
  5
12AD
330
2
100
AcDbEntity
  8
0
100
AcDbText
 10
200.1014226944731
 20
559.2638208036785
 30
0.0
 40
6.0
  1
2636
  7
ARIAL
 72
     1
 11
209.4247514802848
 21
559.2638208036785
 31
0.0
100
AcDbText
  0
TEXT
  5
12AE
330
2
100
AcDbEntity
  8
0
100
AcDbText
 10
155.6014226944731
 20
685.2638208036785
 30
0.0
 40
6.0
  1
2030
  7
ARIAL
 72
     1
 11
164.9247514802848
 21
685.2638208036785
 31
0.0
100
AcDbText
  0
TEXT
  5
12AF
330
2
100
AcDbEntity
  8
0
100
AcDbText
 10
200.1014226944731
 20
685.2638208036785
 30
0.0
 40
6.0
  1
2630
  7
ARIAL
 72
     1
 11
209.4247514802848
 21
685.2638208036785
 31
0.0
100
AcDbText
  0
TEXT
  5
12B0
330
2
100
AcDbEntity
  8
0
100
AcDbText
 10
155.6014226944731
 20
744.7638208036785
 30
0.0
 40
6.0
  1
2026
  7
ARIAL
 72
     1
 11
164.9247514802848
 21
744.7638208036785
 31
0.0
100
AcDbText
  0
TEXT
  5
12B1
330
2
100
AcDbEntity
  8
0
100
AcDbText
 10
155.6014226944731
 20
798.2638208036785
 30
0.0
 40
6.0
  1
2020
  7
ARIAL
 72
     1
 11
164.9247514802848
 21
798.2638208036785
 31
0.0
100
AcDbText
  0
TEXT
  5
12B2
330
2
100
AcDbEntity
  8
0
100
AcDbText
 10
200.1014226944731
 20
744.7638208036785
 30
0.0
 40
6.0
  1
2626
  7
ARIAL
 72
     1
 11
209.4247514802848
 21
744.7638208036785
 31
0.0
100
AcDbText
  0
TEXT
  5
12B3
330
2
100
AcDbEntity
  8
0
100
AcDbText
 10
200.1014226944731
 20
798.2638208036785
 30
0.0
 40
6.0
  1
2620
  7
ARIAL
 72
     1
 11
209.4247514802848
 21
798.2638208036785
 31
0.0
100
AcDbText
  0
TEXT
  5
12B4
330
2
100
AcDbEntity
  8
0
100
AcDbText
 10
156.5582625356221
 20
919.9152318832046
 30
0.0
 40
6.0
  1
2'-0"
  7
ARIAL
 72
     1
 11
164.9034194251173
 21
922.9152318832046
 31
0.0
100
AcDbText
 73
     2
  0
TEXT
  5
12B5
330
2
100
AcDbEntity
  8
0
100
AcDbText
 10
157.9109228357585
 20
907.9152318832046
 30
0.0
 40
6.0
  1
610
  7
ARIAL
 72
     1
 11
164.9034194251173
 21
910.9152318832046
 31
0.0
100
AcDbText
 73
     2
  0
TEXT
  5
12B6
330
2
100
AcDbEntity
  8
0
100
AcDbText
 10
149.432750939442
 20
895.9152318832046
 30
0.0
 40
6.0
  1
18 1/16"
  7
ARIAL
 72
     1
 11
164.9034194251173
 21
898.9152318832046
 31
0.0
100
AcDbText
 73
     2
  0
TEXT
  5
12B7
330
2
100
AcDbEntity
  8
0
100
AcDbText
 10
147.2369801345307
 20
931.9152318832046
 30
0.0
 40
6.0
  1
1'-11 1/2"
  7
ARIAL
 72
     1
 11
164.9034194251173
 21
934.9152318832046
 31
0.0
100
AcDbText
 73
     2
  0
TEXT
  5
12B8
330
2
100
AcDbEntity
  8
0
100
AcDbText
 10
201.0052263960927
 20
919.9152318832046
 30
0.0
 40
6.0
  1
2'-6"
  7
ARIAL
 72
     1
 11
209.3503832855879
 21
922.9152318832046
 31
0.0
100
AcDbText
 73
     2
  0
TEXT
  5
12B9
330
2
100
AcDbEntity
  8
0
100
AcDbText
 10
202.3578866962291
 20
907.9152318832046
 30
0.0
 40
6.0
  1
762
  7
ARIAL
 72
     1
 11
209.3503832855879
 21
910.9152318832046
 31
0.0
100
AcDbText
 73
     2
  0
TEXT
  5
12BA
330
2
100
AcDbEntity
  8
0
100
AcDbText
 10
193.8797147999126
 20
895.9152318832046
 30
0.0
 40
6.0
  1
24 1/16"
  7
ARIAL
 72
     1
 11
209.3503832855879
 21
898.9152318832046
 31
0.0
100
AcDbText
 73
     2
  0
TEXT
  5
12BB
330
2
100
AcDbEntity
  8
0
100
AcDbText
 10
194.0147761914542
 20
931.9152318832046
 30
0.0
 40
6.0
  1
2'-5 1/2"
  7
ARIAL
 72
     1
 11
209.3503832855879
 21
934.9152318832046
 31
0.0
100
AcDbText
 73
     2
  0
TEXT
  5
12BC
330
2
100
AcDbEntity
  8
0
100
AcDbText
 10
250.6014226944731
 20
559.2638208036785
 30
0.0
 40
6.0
  1
3036
  7
ARIAL
 72
     1
 11
259.9247514802848
 21
559.2638208036785
 31
0.0
100
AcDbText
  0
TEXT
  5
12BD
330
2
100
AcDbEntity
  8
0
100
AcDbText
 10
250.6014226944731
 20
685.2638208036785
 30
0.0
 40
6.0
  1
3030
  7
ARIAL
 72
     1
 11
259.9247514802848
 21
685.2638208036785
 31
0.0
100
AcDbText
  0
TEXT
  5
12BE
330
2
100
AcDbEntity
  8
0
100
AcDbText
 10
250.6014226944731
 20
744.7638208036785
 30
0.0
 40
6.0
  1
3026
  7
ARIAL
 72
     1
 11
259.9247514802848
 21
744.7638208036785
 31
0.0
100
AcDbText
  0
TEXT
  5
12BF
330
2
100
AcDbEntity
  8
0
100
AcDbText
 10
250.6014226944731
 20
798.2638208036785
 30
0.0
 40
6.0
  1
3020
  7
ARIAL
 72
     1
 11
259.9247514802848
 21
798.2638208036785
 31
0.0
100
AcDbText
  0
TEXT
  5
12C0
330
2
100
AcDbEntity
  8
0
100
AcDbText
 10
251.5647947288294
 20
919.9152318832046
 30
0.0
 40
6.0
  1
3'-0"
  7
ARIAL
 72
     1
 11
259.9099516183246
 21
922.9152318832046
 31
0.0
100
AcDbText
 73
     2
  0
TEXT
  5
12C1
330
2
100
AcDbEntity
  8
0
100
AcDbText
 10
252.9174550289658
 20
907.9152318832046
 30
0.0
 40
6.0
  1
914
  7
ARIAL
 72
     1
 11
259.9099516183246
 21
910.9152318832046
 31
0.0
100
AcDbText
 73
     2
  0
TEXT
  5
12C2
330
2
100
AcDbEntity
  8
0
100
AcDbText
 10
244.4392831326493
 20
895.9152318832046
 30
0.0
 40
6.0
  1
30 1/16"
  7
ARIAL
 72
     1
 11
259.9099516183246
 21
898.9152318832046
 31
0.0
100
AcDbText
 73
     2
  0
TEXT
  5
12C3
330
2
100
AcDbEntity
  8
0
100
AcDbText
 10
242.243512327738
 20
931.9152318832046
 30
0.0
 40
6.0
  1
2'-11 1/2"
  7
ARIAL
 72
     1
 11
259.9099516183246
 21
934.9152318832046
 31
0.0
100
AcDbText
 73
     2
  0
TEXT
  5
12C4
330
2
100
AcDbEntity
  8
0
100
AcDbText
 10
44.17475148028483
 20
848.9780908575129
 30
0.0
 40
6.0
  1
1'-5 1/2"
 50
90.0
  7
ARIAL
 72
     1
 11
41.17475148028483
 21
864.3136979516466
 31
0.0
100
AcDbText
 73
     2
  0
TEXT
  5
12C5
330
2
100
AcDbEntity
  8
0
100
AcDbText
 10
68.17475148028483
 20
857.3212013622879
 30
0.0
 40
6.0
  1
457
 50
90.0
  7
ARIAL
 72
     1
 11
65.17475148028483
 21
864.3136979516466
 31
0.0
100
AcDbText
 73
     2
  0
TEXT
  5
12C6
330
2
100
AcDbEntity
  8
0
100
AcDbText
 10
56.17475148028483
 20
855.9685410621514
 30
0.0
 40
6.0
  1
1'-6"
 50
90.0
  7
ARIAL
 72
     1
 11
53.17475148028483
 21
864.3136979516466
 31
0.0
100
AcDbText
 73
     2
  0
TEXT
  5
12C7
330
2
100
AcDbEntity
  8
0
100
AcDbText
 10
80.17475148028551
 20
848.8430294659713
 30
0.0
 40
6.0
  1
12 1/16"
 50
90.0
  7
ARIAL
 72
     1
 11
77.17475148028551
 21
864.3136979516466
 31
0.0
100
AcDbText
 73
     2
  0
TEXT
  5
12C8
330
2
100
AcDbEntity
  8
0
100
AcDbText
 10
427.1580898971866
 20
845.7638208036785
 30
0.0
 40
6.0
  1
4016
  7
ARIAL
 72
     1
 11
436.4814186829983
 21
845.7638208036785
 31
0.0
100
AcDbText
  0
TEXT
  5
12C9
330
2
100
AcDbEntity
  8
0
100
AcDbText
 10
363.6580898971866
 20
845.7638208036785
 30
0.0
 40
6.0
  1
3616
  7
ARIAL
 72
     1
 11
372.9814186829983
 21
845.7638208036785
 31
0.0
100
AcDbText
  0
TEXT
  5
12CA
330
2
100
AcDbEntity
  8
0
100
AcDbText
 10
570.1580898971865
 20
845.7638208036785
 30
0.0
 40
6.0
  1
5016
  7
ARIAL
 72
     1
 11
579.4814186829983
 21
845.7638208036785
 31
0.0
100
AcDbText
  0
TEXT
  5
12CB
330
2
100
AcDbEntity
  8
0
100
AcDbText
 10
495.6580898971866
 20
845.7638208036785
 30
0.0
 40
6.0
  1
4616
  7
ARIAL
 72
     1
 11
504.9814186829983
 21
845.7638208036785
 31
0.0
100
AcDbText
  0
TEXT
  5
12CC
330
2
100
AcDbEntity
  8
0
100
AcDbText
 10
155.6014226944731
 20
845.7638208036785
 30
0.0
 40
6.0
  1
2016
  7
ARIAL
 72
     1
 11
164.9247514802848
 21
845.7638208036785
 31
0.0
100
AcDbText
  0
TEXT
  5
12CD
330
2
100
AcDbEntity
  8
0
100
AcDbText
 10
200.1014226944731
 20
845.7638208036785
 30
0.0
 40
6.0
  1
2616
  7
ARIAL
 72
     1
 11
209.4247514802848
 21
845.7638208036785
 31
0.0
100
AcDbText
  0
TEXT
  5
12CE
330
2
100
AcDbEntity
  8
0
100
AcDbText
 10
250.6014226944731
 20
845.7638208036785
 30
0.0
 40
6.0
  1
3016
  7
ARIAL
 72
     1
 11
259.9247514802848
 21
845.7638208036785
 31
0.0
100
AcDbText
  0
LINE
  5
12CF
330
2
100
AcDbEntity
  8
0
100
AcDbLine
 10
784.220933314189
 20
429.5389907996404
 30
0.0
 11
526.0942897634562
 21
429.5389907996404
 31
0.0
  0
TEXT
  5
12D0
330
2
100
AcDbEntity
  8
0
100
AcDbText
 10
533.5460486876638
 20
432.4969277248637
 30
0.0
 40
6.0
  1
AW2-20
  7
ARIAL
 72
     1
 11
548.6790636944851
 21
432.4969277248637
 31
0.0
100
AcDbText
  0
LINE
  5
12D1
330
2
100
AcDbEntity
  8
0
100
AcDbLine
 10
784.220933314189
 20
293.9345429991412
 30
0.0
 11
526.0942897634562
 21
293.9345429991412
 31
0.0
  0
LINE
  5
12D2
330
2
100
AcDbEntity
  8
0
100
AcDbLine
 10
784.220933314189
 20
269.9345429991412
 30
0.0
 11
526.0942897634562
 21
269.9345429991412
 31
0.0
  0
LINE
  5
12D3
330
2
100
AcDbEntity
  8
0
100
AcDbLine
 10
784.220933314189
 20
209.9345429991396
 30
0.0
 11
526.0942897634562
 21
209.9345429991396
 31
0.0
  0
LINE
  5
12D4
330
2
100
AcDbEntity
  8
0
100
AcDbLine
 10
784.220933314189
 20
233.9345429991412
 30
0.0
 11
526.0942897634562
 21
233.9345429991398
 31
0.0
  0
LINE
  5
12D5
330
2
100
AcDbEntity
  8
0
100
AcDbLine
 10
784.220933314189
 20
245.9345429991398
 30
0.0
 11
526.0942897634562
 21
245.9345429991398
 31
0.0
  0
LINE
  5
12D6
330
2
100
AcDbEntity
  8
0
100
AcDbLine
 10
784.220933314189
 20
344.0275611631217
 30
0.0
 11
526.0942897634562
 21
344.0275611631217
 31
0.0
  0
LINE
  5
12D7
330
2
100
AcDbEntity
  8
0
100
AcDbLine
 10
571.6124272670262
 20
293.9345429991412
 30
0.0
 11
571.6124272670257
 21
197.9345429991396
 31
0.0
  0
LINE
  5
12D8
330
2
100
AcDbEntity
  8
0
100
AcDbLine
 10
642.4819292827468
 20
293.9345429991412
 30
0.0
 11
642.4819292827468
 21
197.9345429991396
 31
0.0
  0
TEXT
  5
12D9
330
2
100
AcDbEntity
  8
0
100
AcDbText
 10
588.6704492596119
 20
212.8924799243642
 30
0.0
 40
6.0
  1
10'-5 1/2"
  7
ARIAL
 72
     1
 11
606.3368885501985
 21
212.8924799243642
 31
0.0
100
AcDbText
  0
TEXT
  5
12DA
330
2
100
AcDbEntity
  8
0
100
AcDbText
 10
533.5460486876638
 20
212.8924799243642
 30
0.0
 40
6.0
  1
AW3-36
  7
ARIAL
 72
     1
 11
548.6790636944851
 21
212.8924799243642
 31
0.0
100
AcDbText
  0
TEXT
  5
12DB
330
2
100
AcDbEntity
  8
0
100
AcDbText
 10
533.5460486876638
 20
248.8924799243645
 30
0.0
 40
6.0
  1
AW3-26
  7
ARIAL
 72
     1
 11
548.6790636944851
 21
248.8924799243645
 31
0.0
100
AcDbText
  0
TEXT
  5
12DC
330
2
100
AcDbEntity
  8
0
100
AcDbText
 10
533.5460486876638
 20
236.8924799243645
 30
0.0
 40
6.0
  1
AW3-30
  7
ARIAL
 72
     1
 11
548.6790636944851
 21
236.8924799243645
 31
0.0
100
AcDbText
  0
TEXT
  5
12DD
330
2
100
AcDbEntity
  8
0
100
AcDbText
 10
582.8425632502623
 20
274.4095287650765
 30
0.0
 40
6.0
  1
(Frame Size)
  7
ARIAL
 72
     1
 11
607.059480030617
 21
274.4095287650765
 31
0.0
100
AcDbText
  0
TEXT
  5
12DE
330
2
100
AcDbEntity
  8
0
100
AcDbText
 10
575.8480202761832
 20
283.3938708369618
 30
0.0
 40
6.0
  1
Jamb Dimension
  7
ARIAL
 72
     1
 11
607.059480030617
 21
283.3938708369618
 31
0.0
100
AcDbText
  0
TEXT
  5
12DF
330
2
100
AcDbEntity
  8
0
100
AcDbText
 10
539.1265398199967
 20
283.3938708369618
 30
0.0
 40
6.0
  1
Base
  7
ARIAL
 72
     1
 11
548.6790636944851
 21
283.3938708369618
 31
0.0
100
AcDbText
  0
TEXT
  5
12E0
330
2
100
AcDbEntity
  8
0
100
AcDbText
 10
538.659964103762
 20
274.4095287650765
 30
0.0
 40
6.0
  1
Code
  7
ARIAL
 72
     1
 11
548.6790636944851
 21
274.4095287650765
 31
0.0
100
AcDbText
  0
TEXT
  5
12E1
330
2
100
AcDbEntity
  8
0
100
AcDbText
 10
663.1886269005043
 20
274.4095287650765
 30
0.0
 40
6.0
  1
Opening
  7
ARIAL
 72
     1
 11
679.0337837899996
 21
274.4095287650765
 31
0.0
100
AcDbText
  0
TEXT
  5
12E2
330
2
100
AcDbEntity
  8
0
100
AcDbText
 10
666.6838520028236
 20
283.3938708369618
 30
0.0
 40
6.0
  1
Rough
  7
ARIAL
 72
     1
 11
679.0337837899996
 21
283.3938708369618
 31
0.0
100
AcDbText
  0
LINE
  5
12E3
330
2
100
AcDbEntity
  8
0
100
AcDbLine
 10
713.3514312984679
 20
293.9345429991412
 30
0.0
 11
713.3514312984679
 21
197.9345429991396
 31
0.0
  0
TEXT
  5
12E4
330
2
100
AcDbEntity
  8
0
100
AcDbText
 10
740.1971706961673
 20
212.8924799243642
 30
0.0
 40
6.0
  1
3178
  7
ARIAL
 72
     1
 11
749.5204994819791
 21
212.8924799243642
 31
0.0
100
AcDbText
  0
TEXT
  5
12E5
330
2
100
AcDbEntity
  8
0
100
AcDbText
 10
738.3551550293167
 20
283.3938708369618
 30
0.0
 40
6.0
  1
Metric
  7
ARIAL
 72
     1
 11
749.7637498451421
 21
283.3938708369618
 31
0.0
100
AcDbText
  0
TEXT
  5
12E6
330
2
100
AcDbEntity
  8
0
100
AcDbText
 10
730.2105438424136
 20
274.4095287650765
 30
0.0
 40
6.0
  1
R.O. (mm)
  7
ARIAL
 72
     1
 11
749.7637498451421
 21
274.4095287650765
 31
0.0
100
AcDbText
  0
LWPOLYLINE
  5
12E7
330
2
100
AcDbEntity
  8
0
100
AcDbPolyline
 90
        4
 70
     1
 43
0.0
 10
574.9360373839817
 20
336.0798807416944
 10
574.9360373839817
 20
300.8298807416944
 10
539.6860373839817
 20
300.8298807416944
 10
539.6860373839817
 20
336.0798807416944
  0
LWPOLYLINE
  5
12E8
330
2
100
AcDbEntity
  8
0
100
AcDbPolyline
 90
        4
 70
     1
 43
0.0
 10
570.1540373839817
 20
331.2978807416943
 10
570.1540373839817
 20
305.6118807416946
 10
544.4680373839817
 20
305.6118807416946
 10
544.4680373839817
 20
331.2978807416943
  0
LWPOLYLINE
  5
12E9
330
2
100
AcDbEntity
  8
0
100
AcDbPolyline
 90
        4
 70
     1
 43
0.0
 10
573.8110373839817
 20
334.9548807416944
 10
573.8110373839817
 20
301.9548807416944
 10
540.8110373839817
 20
301.9548807416944
 10
540.8110373839817
 20
334.9548807416944
  0
LWPOLYLINE
  5
12EA
330
2
100
AcDbEntity
  8
0
100
AcDbPolyline
 90
        4
 70
     1
 43
0.0
 10
610.9360373839817
 20
336.0798807416944
 10
610.9360373839817
 20
300.8298807416944
 10
575.6860373839817
 20
300.8298807416944
 10
575.6860373839817
 20
336.0798807416944
  0
LWPOLYLINE
  5
12EB
330
2
100
AcDbEntity
  8
0
100
AcDbPolyline
 90
        4
 70
     1
 43
0.0
 10
606.1540373839817
 20
331.2978807416943
 10
606.1540373839817
 20
305.6118807416946
 10
580.4680373839817
 20
305.6118807416946
 10
580.4680373839817
 20
331.2978807416943
  0
LWPOLYLINE
  5
12EC
330
2
100
AcDbEntity
  8
0
100
AcDbPolyline
 90
        4
 70
     1
 43
0.0
 10
609.8110373839817
 20
334.9548807416944
 10
609.8110373839817
 20
301.9548807416944
 10
576.8110373839817
 20
301.9548807416944
 10
576.8110373839817
 20
334.9548807416944
  0
LINE
  5
12ED
330
2
100
AcDbEntity
  8
0
100
AcDbLine
 10
784.220933314189
 20
197.9345429991409
 30
0.0
 11
526.0942897634562
 21
197.9345429991409
 31
0.0
  0
TEXT
  5
12EE
330
2
100
AcDbEntity
  8
0
100
AcDbText
 10
586.3396170631589
 20
200.8924799243642
 30
0.0
 40
6.0
  1
11'-11 1/2"
  7
ARIAL
 72
     1
 11
606.3368885501985
 21
200.8924799243642
 31
0.0
100
AcDbText
  0
TEXT
  5
12EF
330
2
100
AcDbEntity
  8
0
100
AcDbText
 10
533.5460486876638
 20
200.8924799243642
 30
0.0
 40
6.0
  1
AW3-40
  7
ARIAL
 72
     1
 11
548.6790636944851
 21
200.8924799243642
 31
0.0
100
AcDbText
  0
TEXT
  5
12F0
330
2
100
AcDbEntity
  8
0
100
AcDbText
 10
740.1971706961673
 20
200.8924799243642
 30
0.0
 40
6.0
  1
3658
  7
ARIAL
 72
     1
 11
749.5204994819791
 21
200.8924799243642
 31
0.0
100
AcDbText
  0
LINE
  5
12F1
330
2
100
AcDbEntity
  8
0
100
AcDbLine
 10
784.2209333141888
 20
197.9345429991409
 30
0.0
 11
526.0942897634562
 21
197.9345429991409
 31
0.0
  0
LINE
  5
12F2
330
2
100
AcDbEntity
  8
0
100
AcDbLine
 10
784.220933314189
 20
257.9345429991412
 30
0.0
 11
526.0942897634562
 21
257.9345429991412
 31
0.0
  0
TEXT
  5
12F3
330
2
100
AcDbEntity
  8
0
100
AcDbText
 10
533.5460486876638
 20
260.8924799243645
 30
0.0
 40
6.0
  1
AW3-20
  7
ARIAL
 72
     1
 11
548.6790636944851
 21
260.8924799243645
 31
0.0
100
AcDbText
  0
LINE
  5
12F4
330
2
100
AcDbEntity
  8
0
100
AcDbLine
 10
784.2209333141888
 20
147.841524835159
 30
0.0
 11
526.0942897634561
 21
147.841524835159
 31
0.0
  0
LINE
  5
12F5
330
2
100
AcDbEntity
  8
0
100
AcDbLine
 10
784.2209333141888
 20
123.841524835159
 30
0.0
 11
526.0942897634561
 21
123.841524835159
 31
0.0
  0
LINE
  5
12F6
330
2
100
AcDbEntity
  8
0
100
AcDbLine
 10
784.2209333141888
 20
87.84152483516107
 30
0.0
 11
526.0942897634561
 21
87.8415248351597
 31
0.0
  0
LINE
  5
12F7
330
2
100
AcDbEntity
  8
0
100
AcDbLine
 10
784.2209333141888
 20
99.84152483515902
 30
0.0
 11
526.0942897634561
 21
99.84152483515902
 31
0.0
  0
LINE
  5
12F8
330
2
100
AcDbEntity
  8
0
100
AcDbLine
 10
571.6124272670256
 20
147.8415248351591
 30
0.0
 11
571.6124272670256
 21
87.84152483516107
 31
0.0
  0
LINE
  5
12F9
330
2
100
AcDbEntity
  8
0
100
AcDbLine
 10
642.4819292827464
 20
147.841524835159
 30
0.0
 11
642.4819292827466
 21
87.84152483516107
 31
0.0
  0
TEXT
  5
12FA
330
2
100
AcDbEntity
  8
0
100
AcDbText
 10
533.5460486876636
 20
102.7994617603823
 30
0.0
 40
6.0
  1
AW4-26
  7
ARIAL
 72
     1
 11
548.679063694485
 21
102.7994617603823
 31
0.0
100
AcDbText
  0
TEXT
  5
12FB
330
2
100
AcDbEntity
  8
0
100
AcDbText
 10
533.5460486876636
 20
90.79946176038436
 30
0.0
 40
6.0
  1
AW4-30
  7
ARIAL
 72
     1
 11
548.679063694485
 21
90.79946176038436
 31
0.0
100
AcDbText
  0
TEXT
  5
12FC
330
2
100
AcDbEntity
  8
0
100
AcDbText
 10
582.8425632502622
 20
128.3165106010944
 30
0.0
 40
6.0
  1
(Frame Size)
  7
ARIAL
 72
     1
 11
607.0594800306169
 21
128.3165106010944
 31
0.0
100
AcDbText
  0
TEXT
  5
12FD
330
2
100
AcDbEntity
  8
0
100
AcDbText
 10
575.8480202761831
 20
137.3008526729797
 30
0.0
 40
6.0
  1
Jamb Dimension
  7
ARIAL
 72
     1
 11
607.0594800306169
 21
137.3008526729797
 31
0.0
100
AcDbText
  0
TEXT
  5
12FE
330
2
100
AcDbEntity
  8
0
100
AcDbText
 10
539.1265398199965
 20
137.3008526729797
 30
0.0
 40
6.0
  1
Base
  7
ARIAL
 72
     1
 11
548.679063694485
 21
137.3008526729797
 31
0.0
100
AcDbText
  0
TEXT
  5
12FF
330
2
100
AcDbEntity
  8
0
100
AcDbText
 10
538.6599641037619
 20
128.3165106010944
 30
0.0
 40
6.0
  1
Code
  7
ARIAL
 72
     1
 11
548.679063694485
 21
128.3165106010944
 31
0.0
100
AcDbText
  0
TEXT
  5
1300
330
2
100
AcDbEntity
  8
0
100
AcDbText
 10
663.1886269005041
 20
128.3165106010944
 30
0.0
 40
6.0
  1
Opening
  7
ARIAL
 72
     1
 11
679.0337837899993
 21
128.3165106010944
 31
0.0
100
AcDbText
  0
TEXT
  5
1301
330
2
100
AcDbEntity
  8
0
100
AcDbText
 10
666.6838520028234
 20
137.3008526729797
 30
0.0
 40
6.0
  1
Rough
  7
ARIAL
 72
     1
 11
679.0337837899993
 21
137.3008526729797
 31
0.0
100
AcDbText
  0
LINE
  5
1302
330
2
100
AcDbEntity
  8
0
100
AcDbLine
 10
713.3514312984674
 20
147.841524835159
 30
0.0
 11
713.3514312984677
 21
87.84152483516107
 31
0.0
  0
TEXT
  5
1303
330
2
100
AcDbEntity
  8
0
100
AcDbText
 10
738.3551550293165
 20
137.3008526729797
 30
0.0
 40
6.0
  1
Metric
  7
ARIAL
 72
     1
 11
749.7637498451419
 21
137.3008526729797
 31
0.0
100
AcDbText
  0
TEXT
  5
1304
330
2
100
AcDbEntity
  8
0
100
AcDbText
 10
730.2105438424134
 20
128.3165106010944
 30
0.0
 40
6.0
  1
R.O. (mm)
  7
ARIAL
 72
     1
 11
749.7637498451419
 21
128.3165106010944
 31
0.0
100
AcDbText
  0
LWPOLYLINE
  5
1305
330
2
100
AcDbEntity
  8
0
100
AcDbPolyline
 90
        4
 70
     1
 43
0.0
 10
574.9360373839816
 20
189.9868625777123
 10
574.9360373839816
 20
154.7368625777123
 10
539.6860373839816
 20
154.7368625777123
 10
539.6860373839816
 20
189.9868625777123
  0
LWPOLYLINE
  5
1306
330
2
100
AcDbEntity
  8
0
100
AcDbPolyline
 90
        4
 70
     1
 43
0.0
 10
570.1540373839815
 20
185.2048625777121
 10
570.1540373839815
 20
159.5188625777124
 10
544.4680373839816
 20
159.5188625777124
 10
544.4680373839816
 20
185.2048625777121
  0
LWPOLYLINE
  5
1307
330
2
100
AcDbEntity
  8
0
100
AcDbPolyline
 90
        4
 70
     1
 43
0.0
 10
573.8110373839816
 20
188.8618625777123
 10
573.8110373839816
 20
155.8618625777123
 10
540.8110373839816
 20
155.8618625777123
 10
540.8110373839816
 20
188.8618625777123
  0
LWPOLYLINE
  5
1308
330
2
100
AcDbEntity
  8
0
100
AcDbPolyline
 90
        4
 70
     1
 43
0.0
 10
610.9360373839816
 20
189.9868625777123
 10
610.9360373839816
 20
154.7368625777123
 10
575.6860373839816
 20
154.7368625777123
 10
575.6860373839816
 20
189.9868625777123
  0
LWPOLYLINE
  5
1309
330
2
100
AcDbEntity
  8
0
100
AcDbPolyline
 90
        4
 70
     1
 43
0.0
 10
606.1540373839815
 20
185.2048625777121
 10
606.1540373839815
 20
159.5188625777124
 10
580.4680373839816
 20
159.5188625777124
 10
580.4680373839816
 20
185.2048625777121
  0
LWPOLYLINE
  5
130A
330
2
100
AcDbEntity
  8
0
100
AcDbPolyline
 90
        4
 70
     1
 43
0.0
 10
609.8110373839816
 20
188.8618625777123
 10
609.8110373839816
 20
155.8618625777123
 10
576.8110373839816
 20
155.8618625777123
 10
576.8110373839816
 20
188.8618625777123
  0
LINE
  5
130B
330
2
100
AcDbEntity
  8
0
100
AcDbLine
 10
784.2209333141888
 20
111.841524835159
 30
0.0
 11
526.0942897634561
 21
111.841524835159
 31
0.0
  0
TEXT
  5
130C
330
2
100
AcDbEntity
  8
0
100
AcDbText
 10
533.5460486876636
 20
114.7994617603823
 30
0.0
 40
6.0
  1
AW4-20
  7
ARIAL
 72
     1
 11
548.679063694485
 21
114.7994617603823
 31
0.0
100
AcDbText
  0
LWPOLYLINE
  5
130D
330
2
100
AcDbEntity
  8
0
100
AcDbPolyline
 90
        4
 70
     1
 43
0.0
 10
646.9360373839817
 20
336.0798807416944
 10
646.9360373839817
 20
300.8298807416944
 10
611.6860373839817
 20
300.8298807416944
 10
611.6860373839817
 20
336.0798807416944
  0
LWPOLYLINE
  5
130E
330
2
100
AcDbEntity
  8
0
100
AcDbPolyline
 90
        4
 70
     1
 43
0.0
 10
642.1540373839817
 20
331.2978807416943
 10
642.1540373839817
 20
305.6118807416946
 10
616.4680373839817
 20
305.6118807416946
 10
616.4680373839817
 20
331.2978807416943
  0
LWPOLYLINE
  5
130F
330
2
100
AcDbEntity
  8
0
100
AcDbPolyline
 90
        4
 70
     1
 43
0.0
 10
645.8110373839817
 20
334.9548807416944
 10
645.8110373839817
 20
301.9548807416944
 10
612.8110373839817
 20
301.9548807416944
 10
612.8110373839817
 20
334.9548807416944
  0
LWPOLYLINE
  5
1310
330
2
100
AcDbEntity
  8
0
100
AcDbPolyline
 90
        4
 70
     1
 43
0.0
 10
646.9360373839814
 20
189.9868625777123
 10
646.9360373839814
 20
154.7368625777123
 10
611.6860373839816
 20
154.7368625777123
 10
611.6860373839816
 20
189.9868625777123
  0
LWPOLYLINE
  5
1311
330
2
100
AcDbEntity
  8
0
100
AcDbPolyline
 90
        4
 70
     1
 43
0.0
 10
642.1540373839815
 20
185.2048625777121
 10
642.1540373839815
 20
159.5188625777124
 10
616.4680373839816
 20
159.5188625777124
 10
616.4680373839816
 20
185.2048625777121
  0
LWPOLYLINE
  5
1312
330
2
100
AcDbEntity
  8
0
100
AcDbPolyline
 90
        4
 70
     1
 43
0.0
 10
645.8110373839814
 20
188.8618625777123
 10
645.8110373839814
 20
155.8618625777123
 10
612.8110373839816
 20
155.8618625777123
 10
612.8110373839816
 20
188.8618625777123
  0
LWPOLYLINE
  5
1313
330
2
100
AcDbEntity
  8
0
100
AcDbPolyline
 90
        4
 70
     1
 43
0.0
 10
682.9360373839814
 20
189.9868625777123
 10
682.9360373839814
 20
154.7368625777123
 10
647.6860373839814
 20
154.7368625777123
 10
647.6860373839814
 20
189.9868625777123
  0
LWPOLYLINE
  5
1314
330
2
100
AcDbEntity
  8
0
100
AcDbPolyline
 90
        4
 70
     1
 43
0.0
 10
678.1540373839815
 20
185.2048625777121
 10
678.1540373839815
 20
159.5188625777124
 10
652.4680373839816
 20
159.5188625777124
 10
652.4680373839816
 20
185.2048625777121
  0
LWPOLYLINE
  5
1315
330
2
100
AcDbEntity
  8
0
100
AcDbPolyline
 90
        4
 70
     1
 43
0.0
 10
681.8110373839814
 20
188.8618625777123
 10
681.8110373839814
 20
155.8618625777123
 10
648.8110373839814
 20
155.8618625777123
 10
648.8110373839814
 20
188.8618625777123
  0
TEXT
  5
1316
330
2
100
AcDbEntity
  8
0
100
AcDbText
 10
703.4724647766518
 20
171.3079063738475
 30
0.0
 40
12.0
  1
4 - Wide
  7
ARIAL
 72
     1
 11
734.679831761645
 21
171.3079063738475
 31
0.0
100
AcDbText
  0
TEXT
  5
1317
330
2
100
AcDbEntity
  8
0
100
AcDbText
 10
700.8650528968852
 20
161.708485470646
 30
0.0
 40
6.0
  1
Width Dimensions
  7
ARIAL
 72
     1
 11
734.6365399364487
 21
161.708485470646
 31
0.0
100
AcDbText
  0
TEXT
  5
1318
330
2
100
AcDbEntity
  8
0
100
AcDbText
 10
703.472464776652
 20
317.4009245378282
 30
0.0
 40
12.0
  1
3 - Wide
  7
ARIAL
 72
     1
 11
734.6798317616452
 21
317.4009245378282
 31
0.0
100
AcDbText
  0
TEXT
  5
1319
330
2
100
AcDbEntity
  8
0
100
AcDbText
 10
700.8650528968855
 20
307.8015036346281
 30
0.0
 40
6.0
  1
Width Dimensions
  7
ARIAL
 72
     1
 11
734.6365399364489
 21
307.8015036346281
 31
0.0
100
AcDbText
  0
TEXT
  5
131A
330
2
100
AcDbEntity
  8
0
100
AcDbText
 10
703.472464776652
 20
489.0053723383274
 30
0.0
 40
12.0
  1
2 - Wide
  7
ARIAL
 72
     1
 11
734.6798317616452
 21
489.0053723383274
 31
0.0
100
AcDbText
  0
TEXT
  5
131B
330
2
100
AcDbEntity
  8
0
100
AcDbText
 10
700.8650528968855
 20
479.4059514351273
 30
0.0
 40
6.0
  1
Width Dimensions
  7
ARIAL
 72
     1
 11
734.6365399364489
 21
479.4059514351273
 31
0.0
100
AcDbText
  0
TEXT
  5
131C
330
2
100
AcDbEntity
  8
0
100
AcDbText
 10
588.6704492596122
 20
421.0734379539889
 30
0.0
 40
6.0
  1
4'-11 1/2"
  7
ARIAL
 72
     1
 11
606.3368885501988
 21
421.0734379539889
 31
0.0
100
AcDbText
  0
TEXT
  5
131D
330
2
100
AcDbEntity
  8
0
100
AcDbText
 10
586.3396170631592
 20
409.0734379539889
 30
0.0
 40
6.0
  1
5'-11 1/12"
  7
ARIAL
 72
     1
 11
606.3368885501988
 21
409.0734379539889
 31
0.0
100
AcDbText
  0
TEXT
  5
131E
330
2
100
AcDbEntity
  8
0
100
AcDbText
 10
588.6704492596122
 20
433.0734379539889
 30
0.0
 40
6.0
  1
3'-11 1/2"
  7
ARIAL
 72
     1
 11
606.3368885501988
 21
433.0734379539889
 31
0.0
100
AcDbText
  0
TEXT
  5
131F
330
2
100
AcDbEntity
  8
0
100
AcDbText
 10
740.1971706961675
 20
433.0734379539889
 30
0.0
 40
6.0
  1
1219
  7
ARIAL
 72
     1
 11
749.5204994819793
 21
433.0734379539889
 31
0.0
100
AcDbText
  0
TEXT
  5
1320
330
2
100
AcDbEntity
  8
0
100
AcDbText
 10
740.1971706961675
 20
409.0734379539889
 30
0.0
 40
6.0
  1
1829
  7
ARIAL
 72
     1
 11
749.5204994819793
 21
409.0734379539889
 31
0.0
100
AcDbText
  0
TEXT
  5
1321
330
2
100
AcDbEntity
  8
0
100
AcDbText
 10
740.1971706961675
 20
421.0734379539889
 30
0.0
 40
6.0
  1
1524
  7
ARIAL
 72
     1
 11
749.5204994819793
 21
421.0734379539889
 31
0.0
100
AcDbText
  0
TEXT
  5
1322
330
2
100
AcDbEntity
  8
0
100
AcDbText
 10
668.8612336764246
 20
421.0734379539889
 30
0.0
 40
6.0
  1
5'-0"
  7
ARIAL
 72
     1
 11
677.2063905659198
 21
421.0734379539889
 31
0.0
100
AcDbText
  0
TEXT
  5
1323
330
2
100
AcDbEntity
  8
0
100
AcDbText
 10
668.8612336764246
 20
409.0734379539889
 30
0.0
 40
6.0
  1
6'-0"
  7
ARIAL
 72
     1
 11
677.2063905659198
 21
409.0734379539889
 31
0.0
100
AcDbText
  0
TEXT
  5
1324
330
2
100
AcDbEntity
  8
0
100
AcDbText
 10
668.8612336764246
 20
433.0734379539889
 30
0.0
 40
6.0
  1
4'-0"
  7
ARIAL
 72
     1
 11
677.2063905659198
 21
433.0734379539889
 31
0.0
100
AcDbText
  0
TEXT
  5
1325
330
2
100
AcDbEntity
  8
0
100
AcDbText
 10
588.6704492596122
 20
261.4689901534897
 30
0.0
 40
6.0
  1
5'-11 1/2"
  7
ARIAL
 72
     1
 11
606.3368885501988
 21
261.4689901534897
 31
0.0
100
AcDbText
  0
TEXT
  5
1326
330
2
100
AcDbEntity
  8
0
100
AcDbText
 10
588.6704492596122
 20
237.4689901534897
 30
0.0
 40
6.0
  1
8'-11 1/2"
  7
ARIAL
 72
     1
 11
606.3368885501988
 21
237.4689901534897
 31
0.0
100
AcDbText
  0
TEXT
  5
1327
330
2
100
AcDbEntity
  8
0
100
AcDbText
 10
591.001281456065
 20
249.4689901534897
 30
0.0
 40
6.0
  1
7'-5 1/2"
  7
ARIAL
 72
     1
 11
606.3368885501988
 21
249.4689901534897
 31
0.0
100
AcDbText
  0
TEXT
  5
1328
330
2
100
AcDbEntity
  8
0
100
AcDbText
 10
671.0249756941845
 20
237.4689901534897
 30
0.0
 40
6.0
  1
9'-0"
  7
ARIAL
 72
     1
 11
679.3701325836797
 21
237.4689901534897
 31
0.0
100
AcDbText
  0
TEXT
  5
1329
330
2
100
AcDbEntity
  8
0
100
AcDbText
 10
671.0249756941845
 20
261.4689901534897
 30
0.0
 40
6.0
  1
6'-0"
  7
ARIAL
 72
     1
 11
679.3701325836797
 21
261.4689901534897
 31
0.0
100
AcDbText
  0
TEXT
  5
132A
330
2
100
AcDbEntity
  8
0
100
AcDbText
 10
671.0249756941845
 20
249.4689901534897
 30
0.0
 40
6.0
  1
7'-6"
  7
ARIAL
 72
     1
 11
679.3701325836797
 21
249.4689901534897
 31
0.0
100
AcDbText
  0
TEXT
  5
132B
330
2
100
AcDbEntity
  8
0
100
AcDbText
 10
740.1971706961675
 20
237.4689901534897
 30
0.0
 40
6.0
  1
2743
  7
ARIAL
 72
     1
 11
749.5204994819793
 21
237.4689901534897
 31
0.0
100
AcDbText
  0
TEXT
  5
132C
330
2
100
AcDbEntity
  8
0
100
AcDbText
 10
740.1971706961675
 20
261.4689901534897
 30
0.0
 40
6.0
  1
1829
  7
ARIAL
 72
     1
 11
749.5204994819793
 21
261.4689901534897
 31
0.0
100
AcDbText
  0
TEXT
  5
132D
330
2
100
AcDbEntity
  8
0
100
AcDbText
 10
740.1971706961675
 20
249.4689901534897
 30
0.0
 40
6.0
  1
2286
  7
ARIAL
 72
     1
 11
749.5204994819793
 21
249.4689901534897
 31
0.0
100
AcDbText
  0
TEXT
  5
132E
330
2
100
AcDbEntity
  8
0
100
AcDbText
 10
586.3396170631589
 20
91.3759719895096
 30
0.0
 40
6.0
  1
11'-11 1/2"
  7
ARIAL
 72
     1
 11
606.3368885501985
 21
91.3759719895096
 31
0.0
100
AcDbText
  0
TEXT
  5
132F
330
2
100
AcDbEntity
  8
0
100
AcDbText
 10
588.6704492596119
 20
103.3759719895075
 30
0.0
 40
6.0
  1
9'-11 1/2"
  7
ARIAL
 72
     1
 11
606.3368885501985
 21
103.3759719895075
 31
0.0
100
AcDbText
  0
TEXT
  5
1330
330
2
100
AcDbEntity
  8
0
100
AcDbText
 10
588.6704492596119
 20
115.3759719895089
 30
0.0
 40
6.0
  1
7'-11 1/2"
  7
ARIAL
 72
     1
 11
606.3368885501985
 21
115.3759719895089
 31
0.0
100
AcDbText
  0
TEXT
  5
1331
330
2
100
AcDbEntity
  8
0
100
AcDbText
 10
740.1971706961673
 20
91.3759719895096
 30
0.0
 40
6.0
  1
3658
  7
ARIAL
 72
     1
 11
749.5204994819791
 21
91.3759719895096
 31
0.0
100
AcDbText
  0
TEXT
  5
1332
330
2
100
AcDbEntity
  8
0
100
AcDbText
 10
740.1971706961673
 20
115.3759719895089
 30
0.0
 40
6.0
  1
2438
  7
ARIAL
 72
     1
 11
749.5204994819791
 21
115.3759719895089
 31
0.0
100
AcDbText
  0
TEXT
  5
1333
330
2
100
AcDbEntity
  8
0
100
AcDbText
 10
740.1971706961673
 20
103.3759719895075
 30
0.0
 40
6.0
  1
3048
  7
ARIAL
 72
     1
 11
749.5204994819791
 21
103.3759719895075
 31
0.0
100
AcDbText
  0
TEXT
  5
1334
330
2
100
AcDbEntity
  8
0
100
AcDbText
 10
666.5304014799715
 20
91.3759719895096
 30
0.0
 40
6.0
  1
12'-0"
  7
ARIAL
 72
     1
 11
677.2063905659196
 21
91.3759719895096
 31
0.0
100
AcDbText
  0
TEXT
  5
1335
330
2
100
AcDbEntity
  8
0
100
AcDbText
 10
666.5304014799715
 20
103.3759719895075
 30
0.0
 40
6.0
  1
10'-0"
  7
ARIAL
 72
     1
 11
677.2063905659196
 21
103.3759719895075
 31
0.0
100
AcDbText
  0
TEXT
  5
1336
330
2
100
AcDbEntity
  8
0
100
AcDbText
 10
668.8612336764244
 20
115.3759719895089
 30
0.0
 40
6.0
  1
8'-0"
  7
ARIAL
 72
     1
 11
677.2063905659196
 21
115.3759719895089
 31
0.0
100
AcDbText
  0
TEXT
  5
1337
330
2
100
AcDbEntity
  8
0
100
AcDbText
 10
668.8612336764244
 20
382.985498088345
 30
0.0
 40
6.0
  1
7'-0"
  7
ARIAL
 72
     1
 11
677.2063905659196
 21
382.985498088345
 31
0.0
100
AcDbText
  0
TEXT
  5
1338
330
2
100
AcDbEntity
  8
0
100
AcDbText
 10
668.8612336764244
 20
358.985498088345
 30
0.0
 40
6.0
  1
9'-0"
  7
ARIAL
 72
     1
 11
677.2063905659196
 21
358.985498088345
 31
0.0
100
AcDbText
  0
TEXT
  5
1339
330
2
100
AcDbEntity
  8
0
100
AcDbText
 10
668.8612336764244
 20
370.985498088345
 30
0.0
 40
6.0
  1
8'-0"
  7
ARIAL
 72
     1
 11
677.2063905659196
 21
370.985498088345
 31
0.0
100
AcDbText
  0
TEXT
  5
133A
330
2
100
AcDbEntity
  8
0
100
AcDbText
 10
666.5304014799715
 20
346.985498088345
 30
0.0
 40
6.0
  1
10'-0"
  7
ARIAL
 72
     1
 11
677.2063905659196
 21
346.985498088345
 31
0.0
100
AcDbText
  0
TEXT
  5
133B
330
2
100
AcDbEntity
  8
0
100
AcDbText
 10
666.5304014799715
 20
212.8924799243642
 30
0.0
 40
6.0
  1
10'-6"
  7
ARIAL
 72
     1
 11
677.2063905659196
 21
212.8924799243642
 31
0.0
100
AcDbText
  0
TEXT
  5
133C
330
2
100
AcDbEntity
  8
0
100
AcDbText
 10
666.5304014799715
 20
200.8924799243642
 30
0.0
 40
6.0
  1
12'-0"
  7
ARIAL
 72
     1
 11
677.2063905659196
 21
200.8924799243642
 31
0.0
100
AcDbText
  0
TEXT
  5
133D
330
2
100
AcDbEntity
  8
0
100
AcDbText
 10
250.6014226944731
 20
621.7638208036785
 30
0.0
 40
6.0
  1
3034
  7
ARIAL
 72
     1
 11
259.9247514802848
 21
621.7638208036785
 31
0.0
100
AcDbText
  0
TEXT
  5
133E
330
2
100
AcDbEntity
  8
0
100
AcDbText
 10
363.6580898971866
 20
621.7638208036785
 30
0.0
 40
6.0
  1
3634
  7
ARIAL
 72
     1
 11
372.9814186829983
 21
621.7638208036785
 31
0.0
100
AcDbText
  0
TEXT
  5
133F
330
2
100
AcDbEntity
  8
0
100
AcDbText
 10
155.6014226944731
 20
621.7638208036785
 30
0.0
 40
6.0
  1
2034
  7
ARIAL
 72
     1
 11
164.9247514802848
 21
621.7638208036785
 31
0.0
100
AcDbText
  0
TEXT
  5
1340
330
2
100
AcDbEntity
  8
0
100
AcDbText
 10
200.1014226944731
 20
621.7638208036785
 30
0.0
 40
6.0
  1
2634
  7
ARIAL
 72
     1
 11
209.4247514802848
 21
621.7638208036785
 31
0.0
100
AcDbText
  0
TEXT
  5
1341
330
2
100
AcDbEntity
  8
0
100
AcDbText
 10
44.17475148028482
 20
636.0736241041797
 30
0.0
 40
6.0
  1
3'-3 1/2"
 50
90.0
  7
ARIAL
 72
     1
 11
41.17475148028482
 21
651.4092311983134
 31
0.0
100
AcDbText
 73
     2
  0
TEXT
  5
1342
330
2
100
AcDbEntity
  8
0
100
AcDbText
 10
68.17475148028481
 20
641.2944142981464
 30
0.0
 40
6.0
  1
1003
 50
90.0
  7
ARIAL
 72
     1
 11
65.17475148028481
 21
650.6177430839582
 31
0.0
100
AcDbText
 73
     2
  0
TEXT
  5
1343
330
2
100
AcDbEntity
  8
0
100
AcDbText
 10
56.17475148028481
 20
643.0640743088181
 30
0.0
 40
6.0
  1
3'-4"
 50
90.0
  7
ARIAL
 72
     1
 11
53.17475148028481
 21
651.4092311983134
 31
0.0
100
AcDbText
 73
     2
  0
TEXT
  5
1344
330
2
100
AcDbEntity
  8
0
100
AcDbText
 10
80.1747514802855
 20
635.938562712638
 30
0.0
 40
6.0
  1
34 1/16"
 50
90.0
  7
ARIAL
 72
     1
 11
77.1747514802855
 21
651.4092311983134
 31
0.0
100
AcDbText
 73
     2
  0
TEXT
  5
1345
330
2
100
AcDbEntity
  8
0
100
AcDbText
 10
307.3162629054482
 20
919.9152318832046
 30
0.0
 40
6.0
  1
3'-4"
  7
ARIAL
 72
     1
 11
315.6614197949434
 21
922.9152318832046
 31
0.0
100
AcDbText
 73
     2
  0
TEXT
  5
1346
330
2
100
AcDbEntity
  8
0
100
AcDbText
 10
306.3380910091317
 20
907.9152318832046
 30
0.0
 40
6.0
  1
1003
  7
ARIAL
 72
     1
 11
315.6614197949434
 21
910.9152318832046
 31
0.0
100
AcDbText
 73
     2
  0
TEXT
  5
1347
330
2
100
AcDbEntity
  8
0
100
AcDbText
 10
300.1907513092681
 20
895.9152318832046
 30
0.0
 40
6.0
  1
34 1/16"
  7
ARIAL
 72
     1
 11
315.6614197949434
 21
898.9152318832046
 31
0.0
100
AcDbText
 73
     2
  0
TEXT
  5
1348
330
2
100
AcDbEntity
  8
0
100
AcDbText
 10
300.3258127008097
 20
931.9152318832046
 30
0.0
 40
6.0
  1
3'-3 1/2"
  7
ARIAL
 72
     1
 11
315.6614197949434
 21
934.9152318832046
 31
0.0
100
AcDbText
 73
     2
  0
LINE
  5
1349
330
2
100
AcDbEntity
  8
0
100
AcDbLine
 10
164.9247514802848
 20
869.7082318832046
 30
0.0
 11
164.9247514802848
 21
858.6222318832046
 31
0.0
  0
TEXT
  5
134A
330
2
100
AcDbEntity
  8
0
100
AcDbText
 10
306.1013752183476
 20
845.7638208036785
 30
0.0
 40
6.0
  1
3416
  7
ARIAL
 72
     1
 11
315.4247040041594
 21
845.7638208036785
 31
0.0
100
AcDbText
  0
TEXT
  5
134B
330
2
100
AcDbEntity
  8
0
100
AcDbText
 10
306.1013752183476
 20
798.263665237833
 30
0.0
 40
6.0
  1
3420
  7
ARIAL
 72
     1
 11
315.4247040041594
 21
798.263665237833
 31
0.0
100
AcDbText
  0
TEXT
  5
134C
330
2
100
AcDbEntity
  8
0
100
AcDbText
 10
306.1452164288152
 20
744.763665237833
 30
0.0
 40
6.0
  1
3426
  7
ARIAL
 72
     1
 11
315.4685452146269
 21
744.763665237833
 31
0.0
100
AcDbText
  0
TEXT
  5
134D
330
2
100
AcDbEntity
  8
0
100
AcDbText
 10
306.1452164288152
 20
685.263665237833
 30
0.0
 40
6.0
  1
3430
  7
ARIAL
 72
     1
 11
315.4685452146269
 21
685.263665237833
 31
0.0
100
AcDbText
  0
TEXT
  5
134E
330
2
100
AcDbEntity
  8
0
100
AcDbText
 10
306.1452164288152
 20
621.763665237833
 30
0.0
 40
6.0
  1
3434
  7
ARIAL
 72
     1
 11
315.4685452146269
 21
621.763665237833
 31
0.0
100
AcDbText
  0
TEXT
  5
134F
330
2
100
AcDbEntity
  8
0
100
AcDbText
 10
306.1013752183476
 20
559.2636652378326
 30
0.0
 40
6.0
  1
3436
  7
ARIAL
 72
     1
 11
315.4247040041594
 21
559.2636652378326
 31
0.0
100
AcDbText
  0
LINE
  5
1350
330
2
100
AcDbEntity
  8
0
100
AcDbLine
 10
544.4680373839817
 20
477.2163285421938
 30
0.0
 11
557.3110373839817
 21
502.9023285421935
 31
0.0
  0
LINE
  5
1351
330
2
100
AcDbEntity
  8
0
100
AcDbLine
 10
557.3110373839817
 20
502.9023285421935
 30
0.0
 11
570.1540373839817
 21
477.2163285421938
 31
0.0
  0
LINE
  5
1352
330
2
100
AcDbEntity
  8
0
100
AcDbLine
 10
580.4680373839817
 20
477.2163285421938
 30
0.0
 11
593.3110373839817
 21
502.9023285421935
 31
0.0
  0
LINE
  5
1353
330
2
100
AcDbEntity
  8
0
100
AcDbLine
 10
593.3110373839817
 20
502.9023285421935
 30
0.0
 11
606.1540373839817
 21
477.2163285421938
 31
0.0
  0
LINE
  5
1354
330
2
100
AcDbEntity
  8
0
100
AcDbLine
 10
544.4680373839817
 20
305.6118807416946
 30
0.0
 11
557.3110373839817
 21
331.2978807416943
 31
0.0
  0
LINE
  5
1355
330
2
100
AcDbEntity
  8
0
100
AcDbLine
 10
557.3110373839817
 20
331.2978807416943
 30
0.0
 11
570.1540373839817
 21
305.6118807416946
 31
0.0
  0
LINE
  5
1356
330
2
100
AcDbEntity
  8
0
100
AcDbLine
 10
580.4680373839817
 20
305.6118807416946
 30
0.0
 11
593.3110373839817
 21
331.2978807416943
 31
0.0
  0
LINE
  5
1357
330
2
100
AcDbEntity
  8
0
100
AcDbLine
 10
593.3110373839817
 20
331.2978807416943
 30
0.0
 11
606.1540373839817
 21
305.6118807416946
 31
0.0
  0
LINE
  5
1358
330
2
100
AcDbEntity
  8
0
100
AcDbLine
 10
616.4680373839817
 20
305.6118807416946
 30
0.0
 11
629.3110373839817
 21
331.2978807416943
 31
0.0
  0
LINE
  5
1359
330
2
100
AcDbEntity
  8
0
100
AcDbLine
 10
629.3110373839817
 20
331.2978807416943
 30
0.0
 11
642.1540373839817
 21
305.6118807416946
 31
0.0
  0
LINE
  5
135A
330
2
100
AcDbEntity
  8
0
100
AcDbLine
 10
544.4680373839816
 20
159.5188625777124
 30
0.0
 11
557.3110373839816
 21
185.2048625777121
 31
0.0
  0
LINE
  5
135B
330
2
100
AcDbEntity
  8
0
100
AcDbLine
 10
557.3110373839816
 20
185.2048625777121
 30
0.0
 11
570.1540373839815
 21
159.5188625777124
 31
0.0
  0
LINE
  5
135C
330
2
100
AcDbEntity
  8
0
100
AcDbLine
 10
580.4680373839816
 20
159.5188625777124
 30
0.0
 11
593.3110373839816
 21
185.2048625777121
 31
0.0
  0
LINE
  5
135D
330
2
100
AcDbEntity
  8
0
100
AcDbLine
 10
593.3110373839816
 20
185.2048625777121
 30
0.0
 11
606.1540373839815
 21
159.5188625777124
 31
0.0
  0
LINE
  5
135E
330
2
100
AcDbEntity
  8
0
100
AcDbLine
 10
616.4680373839816
 20
159.5188625777124
 30
0.0
 11
629.3110373839816
 21
185.2048625777121
 31
0.0
  0
LINE
  5
135F
330
2
100
AcDbEntity
  8
0
100
AcDbLine
 10
629.3110373839816
 20
185.2048625777121
 30
0.0
 11
642.1540373839815
 21
159.5188625777124
 31
0.0
  0
LINE
  5
1360
330
2
100
AcDbEntity
  8
0
100
AcDbLine
 10
652.4680373839816
 20
159.5188625777124
 30
0.0
 11
665.3110373839814
 21
185.2048625777121
 31
0.0
  0
LINE
  5
1361
330
2
100
AcDbEntity
  8
0
100
AcDbLine
 10
665.3110373839814
 20
185.2048625777121
 30
0.0
 11
678.1540373839815
 21
159.5188625777124
 31
0.0
  0
LINE
  5
1362
330
2
100
AcDbEntity
  8
0
100
AcDbLine
 10
526.0942897634562
 20
515.632008963621
 30
0.0
 11
526.0942897634561
 21
87.8415248351597
 31
0.0
  0
LINE
  5
1363
330
2
100
AcDbEntity
  8
0
100
AcDbLine
 10
784.2209333141888
 20
87.84152483516107
 30
0.0
 11
784.220933314189
 21
515.632008963621
 31
0.0
  0
LINE
  5
1364
330
2
100
AcDbEntity
  8
0
100
AcDbLine
 10
156.3817514802848
 20
864.1652318832046
 30
0.0
 11
173.4677514802848
 21
864.1652318832046
 31
0.0
  0
LINE
  5
1365
330
2
100
AcDbEntity
  8
0
100
AcDbLine
 10
784.220933314189
 20
392.027561163119
 30
0.0
 11
526.0942897634562
 21
392.027561163119
 31
0.0
  0
TEXT
  5
1366
330
2
100
AcDbEntity
  8
0
100
AcDbText
 10
588.6704492596119
 20
394.9854980883437
 30
0.0
 40
6.0
  1
6'-7 1/12"
  7
ARIAL
 72
     1
 11
606.3368885501985
 21
394.9854980883437
 31
0.0
100
AcDbText
  0
TEXT
  5
1367
330
2
100
AcDbEntity
  8
0
100
AcDbText
 10
533.5460486876638
 20
394.9854980883437
 30
0.0
 40
6.0
  1
AW2-34
  7
ARIAL
 72
     1
 11
548.6790636944851
 21
394.9854980883437
 31
0.0
100
AcDbText
  0
TEXT
  5
1368
330
2
100
AcDbEntity
  8
0
100
AcDbText
 10
740.1971706961673
 20
394.9854980883437
 30
0.0
 40
6.0
  1
2032
  7
ARIAL
 72
     1
 11
749.5204994819791
 21
394.9854980883437
 31
0.0
100
AcDbText
  0
TEXT
  5
1369
330
2
100
AcDbEntity
  8
0
100
AcDbText
 10
668.8612336764244
 20
394.9854980883437
 30
0.0
 40
6.0
  1
6'-8"
  7
ARIAL
 72
     1
 11
677.2063905659196
 21
394.9854980883437
 31
0.0
100
AcDbText
  0
TEXT
  5
136A
330
2
100
AcDbEntity
  8
0
100
AcDbText
 10
588.6704492596119
 20
224.8924799243629
 30
0.0
 40
6.0
  1
9'-11 1/2"
  7
ARIAL
 72
     1
 11
606.3368885501985
 21
224.8924799243629
 31
0.0
100
AcDbText
  0
TEXT
  5
136B
330
2
100
AcDbEntity
  8
0
100
AcDbText
 10
533.5460486876638
 20
224.8924799243629
 30
0.0
 40
6.0
  1
AW3-34
  7
ARIAL
 72
     1
 11
548.6790636944851
 21
224.8924799243629
 31
0.0
100
AcDbText
  0
TEXT
  5
136C
330
2
100
AcDbEntity
  8
0
100
AcDbText
 10
740.1971706961673
 20
224.8924799243629
 30
0.0
 40
6.0
  1
3048
  7
ARIAL
 72
     1
 11
749.5204994819791
 21
224.8924799243629
 31
0.0
100
AcDbText
  0
TEXT
  5
136D
330
2
100
AcDbEntity
  8
0
100
AcDbText
 10
666.5304014799715
 20
224.8924799243629
 30
0.0
 40
6.0
  1
10'-0"
  7
ARIAL
 72
     1
 11
677.2063905659196
 21
224.8924799243629
 31
0.0
100
AcDbText
  0
LINE
  5
136E
330
2
100
AcDbEntity
  8
0
100
AcDbLine
 10
784.220933314189
 20
221.9345429991382
 30
0.0
 11
526.0942897634562
 21
221.9345429991382
 31
0.0
  0
LWPOLYLINE
  5
136F
330
2
100
AcDbEntity
  8
0
100
AcDbPolyline
 90
        4
 70
     1
 43
0.0
 10
153.1747514802848
 20
855.4152318832046
 10
176.6747514802848
 20
855.4152318832046
 10
176.6747514802848
 20
872.9152318832046
 10
153.1747514802848
 20
872.9152318832046
  0
LWPOLYLINE
  5
1370
330
2
100
AcDbEntity
  8
0
100
AcDbPolyline
 90
        4
 70
     1
 43
0.0
 10
156.3817514802848
 20
858.6222318832046
 10
173.4677514802848
 20
858.6222318832046
 10
173.4677514802848
 20
869.7082318832046
 10
156.3817514802848
 20
869.7082318832046
  0
LWPOLYLINE
  5
1371
330
2
100
AcDbEntity
  8
0
100
AcDbPolyline
 90
        4
 70
     1
 43
0.0
 10
154.0327514802848
 20
856.2732318832045
 10
175.8167514802848
 20
856.2732318832045
 10
175.8167514802848
 20
872.0572318832046
 10
154.0327514802848
 20
872.0572318832046
  0
LINE
  5
1372
330
2
100
AcDbEntity
  8
0
100
AcDbLine
 10
209.4247514802848
 20
869.7082318832046
 30
0.0
 11
209.4247514802848
 21
858.6222318832046
 31
0.0
  0
LINE
  5
1373
330
2
100
AcDbEntity
  8
0
100
AcDbLine
 10
197.8817514802848
 20
864.1652318832046
 30
0.0
 11
220.9677514802848
 21
864.1652318832046
 31
0.0
  0
LWPOLYLINE
  5
1374
330
2
100
AcDbEntity
  8
0
100
AcDbPolyline
 90
        4
 70
     1
 43
0.0
 10
194.6747514802848
 20
855.4152318832046
 10
224.1747514802848
 20
855.4152318832046
 10
224.1747514802848
 20
872.9152318832046
 10
194.6747514802848
 20
872.9152318832046
  0
LWPOLYLINE
  5
1375
330
2
100
AcDbEntity
  8
0
100
AcDbPolyline
 90
        4
 70
     1
 43
0.0
 10
197.8817514802848
 20
858.6222318832046
 10
220.9677514802848
 20
858.6222318832046
 10
220.9677514802848
 20
869.7082318832046
 10
197.8817514802848
 20
869.7082318832046
  0
LWPOLYLINE
  5
1376
330
2
100
AcDbEntity
  8
0
100
AcDbPolyline
 90
        4
 70
     1
 43
0.0
 10
195.5327514802848
 20
856.2732318832045
 10
223.3167514802848
 20
856.2732318832045
 10
223.3167514802848
 20
872.0572318832046
 10
195.5327514802848
 20
872.0572318832046
  0
LINE
  5
1377
330
2
100
AcDbEntity
  8
0
100
AcDbLine
 10
255.0717514802848
 20
869.7082318832046
 30
0.0
 11
255.0717514802848
 21
858.6222318832046
 31
0.0
  0
LINE
  5
1378
330
2
100
AcDbEntity
  8
0
100
AcDbLine
 10
245.3817514802848
 20
864.1652318832046
 30
0.0
 11
274.4677514802848
 21
864.1652318832046
 31
0.0
  0
LWPOLYLINE
  5
1379
330
2
100
AcDbEntity
  8
0
100
AcDbPolyline
 90
        4
 70
     1
 43
0.0
 10
242.1747514802848
 20
855.4152318832046
 10
277.6747514802848
 20
855.4152318832046
 10
277.6747514802848
 20
872.9152318832046
 10
242.1747514802848
 20
872.9152318832046
  0
LWPOLYLINE
  5
137A
330
2
100
AcDbEntity
  8
0
100
AcDbPolyline
 90
        4
 70
     1
 43
0.0
 10
245.3817514802848
 20
858.6222318832046
 10
274.4677514802848
 20
858.6222318832046
 10
274.4677514802848
 20
869.7082318832046
 10
245.3817514802848
 20
869.7082318832046
  0
LWPOLYLINE
  5
137B
330
2
100
AcDbEntity
  8
0
100
AcDbPolyline
 90
        4
 70
     1
 43
0.0
 10
243.0327514802848
 20
856.2732318832045
 10
276.8167514802848
 20
856.2732318832045
 10
276.8167514802848
 20
872.0572318832046
 10
243.0327514802848
 20
872.0572318832046
  0
LINE
  5
137C
330
2
100
AcDbEntity
  8
0
100
AcDbLine
 10
264.7777514802848
 20
869.7082318832046
 30
0.0
 11
264.7777514802848
 21
858.6222318832046
 31
0.0
  0
LINE
  5
137D
330
2
100
AcDbEntity
  8
0
100
AcDbLine
 10
309.9017514802848
 20
869.7082318832046
 30
0.0
 11
309.9017514802848
 21
858.6222318832046
 31
0.0
  0
LINE
  5
137E
330
2
100
AcDbEntity
  8
0
100
AcDbLine
 10
298.8817514802848
 20
864.1652318832046
 30
0.0
 11
331.9677514802848
 21
864.1652318832046
 31
0.0
  0
LWPOLYLINE
  5
137F
330
2
100
AcDbEntity
  8
0
100
AcDbPolyline
 90
        4
 70
     1
 43
0.0
 10
295.6747514802848
 20
855.4152318832046
 10
335.1747514802848
 20
855.4152318832046
 10
335.1747514802848
 20
872.9152318832046
 10
295.6747514802848
 20
872.9152318832046
  0
LWPOLYLINE
  5
1380
330
2
100
AcDbEntity
  8
0
100
AcDbPolyline
 90
        4
 70
     1
 43
0.0
 10
298.8817514802848
 20
858.6222318832046
 10
331.9677514802848
 20
858.6222318832046
 10
331.9677514802848
 20
869.7082318832046
 10
298.8817514802848
 20
869.7082318832046
  0
LWPOLYLINE
  5
1381
330
2
100
AcDbEntity
  8
0
100
AcDbPolyline
 90
        4
 70
     1
 43
0.0
 10
296.5327514802848
 20
856.2732318832045
 10
334.3167514802848
 20
856.2732318832045
 10
334.3167514802848
 20
872.0572318832046
 10
296.5327514802848
 20
872.0572318832046
  0
LINE
  5
1382
330
2
100
AcDbEntity
  8
0
100
AcDbLine
 10
320.9477514802849
 20
869.7082318832046
 30
0.0
 11
320.9477514802849
 21
858.6222318832046
 31
0.0
  0
LINE
  5
1383
330
2
100
AcDbEntity
  8
0
100
AcDbLine
 10
368.0617514802848
 20
869.7082318832046
 30
0.0
 11
368.0617514802848
 21
858.6222318832046
 31
0.0
  0
LINE
  5
1384
330
2
100
AcDbEntity
  8
0
100
AcDbLine
 10
356.3817514802848
 20
864.1652318832046
 30
0.0
 11
391.4677514802848
 21
864.1652318832046
 31
0.0
  0
LWPOLYLINE
  5
1385
330
2
100
AcDbEntity
  8
0
100
AcDbPolyline
 90
        4
 70
     1
 43
0.0
 10
353.1747514802848
 20
855.4152318832046
 10
394.6747514802848
 20
855.4152318832046
 10
394.6747514802848
 20
872.9152318832046
 10
353.1747514802848
 20
872.9152318832046
  0
LWPOLYLINE
  5
1386
330
2
100
AcDbEntity
  8
0
100
AcDbPolyline
 90
        4
 70
     1
 43
0.0
 10
356.3817514802848
 20
858.6222318832046
 10
391.4677514802848
 20
858.6222318832046
 10
391.4677514802848
 20
869.7082318832046
 10
356.3817514802848
 20
869.7082318832046
  0
LWPOLYLINE
  5
1387
330
2
100
AcDbEntity
  8
0
100
AcDbPolyline
 90
        4
 70
     1
 43
0.0
 10
354.0327514802848
 20
856.2732318832045
 10
393.8167514802848
 20
856.2732318832045
 10
393.8167514802848
 20
872.0572318832046
 10
354.0327514802848
 20
872.0572318832046
  0
LINE
  5
1388
330
2
100
AcDbEntity
  8
0
100
AcDbLine
 10
379.7877514802848
 20
869.7082318832046
 30
0.0
 11
379.7877514802848
 21
858.6222318832046
 31
0.0
  0
LINE
  5
1389
330
2
100
AcDbEntity
  8
0
100
AcDbLine
 10
426.1532514802848
 20
869.7082318832046
 30
0.0
 11
426.1532514802848
 21
858.6222318832046
 31
0.0
  0
LINE
  5
138A
330
2
100
AcDbEntity
  8
0
100
AcDbLine
 10
415.8817514802848
 20
864.1652318832046
 30
0.0
 11
456.9677514802848
 21
864.1652318832046
 31
0.0
  0
LWPOLYLINE
  5
138B
330
2
100
AcDbEntity
  8
0
100
AcDbPolyline
 90
        4
 70
     1
 43
0.0
 10
412.6747514802848
 20
855.4152318832046
 10
460.1747514802848
 20
855.4152318832046
 10
460.1747514802848
 20
872.9152318832046
 10
412.6747514802848
 20
872.9152318832046
  0
LWPOLYLINE
  5
138C
330
2
100
AcDbEntity
  8
0
100
AcDbPolyline
 90
        4
 70
     1
 43
0.0
 10
415.8817514802848
 20
858.6222318832046
 10
456.9677514802848
 20
858.6222318832046
 10
456.9677514802848
 20
869.7082318832046
 10
415.8817514802848
 20
869.7082318832046
  0
LWPOLYLINE
  5
138D
330
2
100
AcDbEntity
  8
0
100
AcDbPolyline
 90
        4
 70
     1
 43
0.0
 10
413.5327514802848
 20
856.2732318832045
 10
459.3167514802848
 20
856.2732318832045
 10
459.3167514802848
 20
872.0572318832046
 10
413.5327514802848
 20
872.0572318832046
  0
LINE
  5
138E
330
2
100
AcDbEntity
  8
0
100
AcDbLine
 10
436.4247514802848
 20
869.7082318832046
 30
0.0
 11
436.4247514802848
 21
858.6222318832046
 31
0.0
  0
LINE
  5
138F
330
2
100
AcDbEntity
  8
0
100
AcDbLine
 10
446.6962514802848
 20
869.7082318832046
 30
0.0
 11
446.6962514802848
 21
858.6222318832046
 31
0.0
  0
LINE
  5
1390
330
2
100
AcDbEntity
  8
0
100
AcDbLine
 10
493.1532514802848
 20
869.7082318832046
 30
0.0
 11
493.1532514802848
 21
858.6222318832046
 31
0.0
  0
LINE
  5
1391
330
2
100
AcDbEntity
  8
0
100
AcDbLine
 10
481.3817514802848
 20
864.1652318832046
 30
0.0
 11
528.4677514802848
 21
864.1652318832046
 31
0.0
  0
LWPOLYLINE
  5
1392
330
2
100
AcDbEntity
  8
0
100
AcDbPolyline
 90
        4
 70
     1
 43
0.0
 10
478.1747514802848
 20
855.4152318832046
 10
531.6747514802848
 20
855.4152318832046
 10
531.6747514802848
 20
872.9152318832046
 10
478.1747514802848
 20
872.9152318832046
  0
LWPOLYLINE
  5
1393
330
2
100
AcDbEntity
  8
0
100
AcDbPolyline
 90
        4
 70
     1
 43
0.0
 10
481.3817514802848
 20
858.6222318832046
 10
528.4677514802848
 20
858.6222318832046
 10
528.4677514802848
 20
869.7082318832046
 10
481.3817514802848
 20
869.7082318832046
  0
LWPOLYLINE
  5
1394
330
2
100
AcDbEntity
  8
0
100
AcDbPolyline
 90
        4
 70
     1
 43
0.0
 10
479.0327514802848
 20
856.2732318832045
 10
530.8167514802849
 20
856.2732318832045
 10
530.8167514802849
 20
872.0572318832046
 10
479.0327514802848
 20
872.0572318832046
  0
LINE
  5
1395
330
2
100
AcDbEntity
  8
0
100
AcDbLine
 10
504.9247514802848
 20
869.7082318832046
 30
0.0
 11
504.9247514802848
 21
858.6222318832046
 31
0.0
  0
LINE
  5
1396
330
2
100
AcDbEntity
  8
0
100
AcDbLine
 10
516.6962514802849
 20
869.7082318832046
 30
0.0
 11
516.6962514802849
 21
858.6222318832046
 31
0.0
  0
LINE
  5
1397
330
2
100
AcDbEntity
  8
0
100
AcDbLine
 10
566.1532514802848
 20
869.7082318832046
 30
0.0
 11
566.1532514802848
 21
858.6222318832046
 31
0.0
  0
LINE
  5
1398
330
2
100
AcDbEntity
  8
0
100
AcDbLine
 10
552.8817514802848
 20
864.1652318832046
 30
0.0
 11
605.9677514802848
 21
864.1652318832046
 31
0.0
  0
LWPOLYLINE
  5
1399
330
2
100
AcDbEntity
  8
0
100
AcDbPolyline
 90
        4
 70
     1
 43
0.0
 10
549.6747514802848
 20
855.4152318832046
 10
609.1747514802848
 20
855.4152318832046
 10
609.1747514802848
 20
872.9152318832046
 10
549.6747514802848
 20
872.9152318832046
  0
LWPOLYLINE
  5
139A
330
2
100
AcDbEntity
  8
0
100
AcDbPolyline
 90
        4
 70
     1
 43
0.0
 10
552.8817514802848
 20
858.6222318832046
 10
605.9677514802848
 20
858.6222318832046
 10
605.9677514802848
 20
869.7082318832046
 10
552.8817514802848
 20
869.7082318832046
  0
LWPOLYLINE
  5
139B
330
2
100
AcDbEntity
  8
0
100
AcDbPolyline
 90
        4
 70
     1
 43
0.0
 10
550.5327514802848
 20
856.2732318832045
 10
608.3167514802849
 20
856.2732318832045
 10
608.3167514802849
 20
872.0572318832046
 10
550.5327514802848
 20
872.0572318832046
  0
LINE
  5
139C
330
2
100
AcDbEntity
  8
0
100
AcDbLine
 10
579.4247514802848
 20
869.7082318832046
 30
0.0
 11
579.4247514802848
 21
858.6222318832046
 31
0.0
  0
LINE
  5
139D
330
2
100
AcDbEntity
  8
0
100
AcDbLine
 10
592.6962514802849
 20
869.7082318832046
 30
0.0
 11
592.6962514802849
 21
858.6222318832046
 31
0.0
  0
LINE
  5
139E
330
2
100
AcDbEntity
  8
0
100
AcDbLine
 10
164.9247514802848
 20
828.2082318832046
 30
0.0
 11
164.9247514802848
 21
811.1222318832046
 31
0.0
  0
LINE
  5
139F
330
2
100
AcDbEntity
  8
0
100
AcDbLine
 10
156.3817514802848
 20
819.6652318832046
 30
0.0
 11
173.4677514802848
 21
819.6652318832046
 31
0.0
  0
LWPOLYLINE
  5
13A0
330
2
100
AcDbEntity
  8
0
100
AcDbPolyline
 90
        4
 70
     1
 43
0.0
 10
153.1747514802848
 20
807.9152318832046
 10
176.6747514802848
 20
807.9152318832046
 10
176.6747514802848
 20
831.4152318832046
 10
153.1747514802848
 20
831.4152318832046
  0
LWPOLYLINE
  5
13A1
330
2
100
AcDbEntity
  8
0
100
AcDbPolyline
 90
        4
 70
     1
 43
0.0
 10
156.3817514802848
 20
811.1222318832046
 10
173.4677514802848
 20
811.1222318832046
 10
173.4677514802848
 20
828.2082318832046
 10
156.3817514802848
 20
828.2082318832046
  0
LWPOLYLINE
  5
13A2
330
2
100
AcDbEntity
  8
0
100
AcDbPolyline
 90
        4
 70
     1
 43
0.0
 10
154.0327514802848
 20
808.7732318832045
 10
175.8167514802848
 20
808.7732318832045
 10
175.8167514802848
 20
830.5572318832046
 10
154.0327514802848
 20
830.5572318832046
  0
LINE
  5
13A3
330
2
100
AcDbEntity
  8
0
100
AcDbLine
 10
209.4247514802848
 20
828.2082318832046
 30
0.0
 11
209.4247514802848
 21
811.1222318832046
 31
0.0
  0
LINE
  5
13A4
330
2
100
AcDbEntity
  8
0
100
AcDbLine
 10
197.8817514802848
 20
819.6652318832046
 30
0.0
 11
220.9677514802848
 21
819.6652318832046
 31
0.0
  0
LWPOLYLINE
  5
13A5
330
2
100
AcDbEntity
  8
0
100
AcDbPolyline
 90
        4
 70
     1
 43
0.0
 10
194.6747514802848
 20
807.9152318832046
 10
224.1747514802848
 20
807.9152318832046
 10
224.1747514802848
 20
831.4152318832046
 10
194.6747514802848
 20
831.4152318832046
  0
LWPOLYLINE
  5
13A6
330
2
100
AcDbEntity
  8
0
100
AcDbPolyline
 90
        4
 70
     1
 43
0.0
 10
197.8817514802848
 20
811.1222318832046
 10
220.9677514802848
 20
811.1222318832046
 10
220.9677514802848
 20
828.2082318832046
 10
197.8817514802848
 20
828.2082318832046
  0
LWPOLYLINE
  5
13A7
330
2
100
AcDbEntity
  8
0
100
AcDbPolyline
 90
        4
 70
     1
 43
0.0
 10
195.5327514802848
 20
808.7732318832045
 10
223.3167514802848
 20
808.7732318832045
 10
223.3167514802848
 20
830.5572318832046
 10
195.5327514802848
 20
830.5572318832046
  0
LINE
  5
13A8
330
2
100
AcDbEntity
  8
0
100
AcDbLine
 10
255.0717514802848
 20
828.2082318832046
 30
0.0
 11
255.0717514802848
 21
811.1222318832046
 31
0.0
  0
LINE
  5
13A9
330
2
100
AcDbEntity
  8
0
100
AcDbLine
 10
245.3817514802848
 20
819.6652318832046
 30
0.0
 11
274.4677514802848
 21
819.6652318832046
 31
0.0
  0
LWPOLYLINE
  5
13AA
330
2
100
AcDbEntity
  8
0
100
AcDbPolyline
 90
        4
 70
     1
 43
0.0
 10
242.1747514802848
 20
807.9152318832046
 10
277.6747514802848
 20
807.9152318832046
 10
277.6747514802848
 20
831.4152318832046
 10
242.1747514802848
 20
831.4152318832046
  0
LWPOLYLINE
  5
13AB
330
2
100
AcDbEntity
  8
0
100
AcDbPolyline
 90
        4
 70
     1
 43
0.0
 10
245.3817514802848
 20
811.1222318832046
 10
274.4677514802848
 20
811.1222318832046
 10
274.4677514802848
 20
828.2082318832046
 10
245.3817514802848
 20
828.2082318832046
  0
LWPOLYLINE
  5
13AC
330
2
100
AcDbEntity
  8
0
100
AcDbPolyline
 90
        4
 70
     1
 43
0.0
 10
243.0327514802848
 20
808.7732318832045
 10
276.8167514802848
 20
808.7732318832045
 10
276.8167514802848
 20
830.5572318832046
 10
243.0327514802848
 20
830.5572318832046
  0
LINE
  5
13AD
330
2
100
AcDbEntity
  8
0
100
AcDbLine
 10
264.7777514802848
 20
828.2082318832046
 30
0.0
 11
264.7777514802848
 21
811.1222318832046
 31
0.0
  0
LINE
  5
13AE
330
2
100
AcDbEntity
  8
0
100
AcDbLine
 10
309.9017514802848
 20
828.2082318832046
 30
0.0
 11
309.9017514802848
 21
811.1222318832046
 31
0.0
  0
LINE
  5
13AF
330
2
100
AcDbEntity
  8
0
100
AcDbLine
 10
298.8817514802848
 20
819.6652318832046
 30
0.0
 11
331.9677514802848
 21
819.6652318832046
 31
0.0
  0
LWPOLYLINE
  5
13B0
330
2
100
AcDbEntity
  8
0
100
AcDbPolyline
 90
        4
 70
     1
 43
0.0
 10
295.6747514802848
 20
807.9152318832046
 10
335.1747514802848
 20
807.9152318832046
 10
335.1747514802848
 20
831.4152318832046
 10
295.6747514802848
 20
831.4152318832046
  0
LWPOLYLINE
  5
13B1
330
2
100
AcDbEntity
  8
0
100
AcDbPolyline
 90
        4
 70
     1
 43
0.0
 10
298.8817514802848
 20
811.1222318832046
 10
331.9677514802848
 20
811.1222318832046
 10
331.9677514802848
 20
828.2082318832046
 10
298.8817514802848
 20
828.2082318832046
  0
LWPOLYLINE
  5
13B2
330
2
100
AcDbEntity
  8
0
100
AcDbPolyline
 90
        4
 70
     1
 43
0.0
 10
296.5327514802848
 20
808.7732318832045
 10
334.3167514802848
 20
808.7732318832045
 10
334.3167514802848
 20
830.5572318832046
 10
296.5327514802848
 20
830.5572318832046
  0
LINE
  5
13B3
330
2
100
AcDbEntity
  8
0
100
AcDbLine
 10
320.9477514802849
 20
828.2082318832046
 30
0.0
 11
320.9477514802849
 21
811.1222318832046
 31
0.0
  0
LINE
  5
13B4
330
2
100
AcDbEntity
  8
0
100
AcDbLine
 10
368.0617514802848
 20
828.2082318832046
 30
0.0
 11
368.0617514802848
 21
811.1222318832046
 31
0.0
  0
LINE
  5
13B5
330
2
100
AcDbEntity
  8
0
100
AcDbLine
 10
356.3817514802848
 20
819.6652318832046
 30
0.0
 11
391.4677514802848
 21
819.6652318832046
 31
0.0
  0
LWPOLYLINE
  5
13B6
330
2
100
AcDbEntity
  8
0
100
AcDbPolyline
 90
        4
 70
     1
 43
0.0
 10
353.1747514802848
 20
807.9152318832046
 10
394.6747514802848
 20
807.9152318832046
 10
394.6747514802848
 20
831.4152318832046
 10
353.1747514802848
 20
831.4152318832046
  0
LWPOLYLINE
  5
13B7
330
2
100
AcDbEntity
  8
0
100
AcDbPolyline
 90
        4
 70
     1
 43
0.0
 10
356.3817514802848
 20
811.1222318832046
 10
391.4677514802848
 20
811.1222318832046
 10
391.4677514802848
 20
828.2082318832046
 10
356.3817514802848
 20
828.2082318832046
  0
LWPOLYLINE
  5
13B8
330
2
100
AcDbEntity
  8
0
100
AcDbPolyline
 90
        4
 70
     1
 43
0.0
 10
354.0327514802848
 20
808.7732318832045
 10
393.8167514802848
 20
808.7732318832045
 10
393.8167514802848
 20
830.5572318832046
 10
354.0327514802848
 20
830.5572318832046
  0
LINE
  5
13B9
330
2
100
AcDbEntity
  8
0
100
AcDbLine
 10
379.7877514802848
 20
828.2082318832046
 30
0.0
 11
379.7877514802848
 21
811.1222318832046
 31
0.0
  0
LINE
  5
13BA
330
2
100
AcDbEntity
  8
0
100
AcDbLine
 10
426.1532514802848
 20
828.2082318832046
 30
0.0
 11
426.1532514802848
 21
811.1222318832046
 31
0.0
  0
LINE
  5
13BB
330
2
100
AcDbEntity
  8
0
100
AcDbLine
 10
415.8817514802848
 20
819.6652318832046
 30
0.0
 11
456.9677514802848
 21
819.6652318832046
 31
0.0
  0
LWPOLYLINE
  5
13BC
330
2
100
AcDbEntity
  8
0
100
AcDbPolyline
 90
        4
 70
     1
 43
0.0
 10
412.6747514802848
 20
807.9152318832046
 10
460.1747514802848
 20
807.9152318832046
 10
460.1747514802848
 20
831.4152318832046
 10
412.6747514802848
 20
831.4152318832046
  0
LWPOLYLINE
  5
13BD
330
2
100
AcDbEntity
  8
0
100
AcDbPolyline
 90
        4
 70
     1
 43
0.0
 10
415.8817514802848
 20
811.1222318832046
 10
456.9677514802848
 20
811.1222318832046
 10
456.9677514802848
 20
828.2082318832046
 10
415.8817514802848
 20
828.2082318832046
  0
LWPOLYLINE
  5
13BE
330
2
100
AcDbEntity
  8
0
100
AcDbPolyline
 90
        4
 70
     1
 43
0.0
 10
413.5327514802848
 20
808.7732318832045
 10
459.3167514802848
 20
808.7732318832045
 10
459.3167514802848
 20
830.5572318832046
 10
413.5327514802848
 20
830.5572318832046
  0
LINE
  5
13BF
330
2
100
AcDbEntity
  8
0
100
AcDbLine
 10
436.4247514802848
 20
828.2082318832046
 30
0.0
 11
436.4247514802848
 21
811.1222318832046
 31
0.0
  0
LINE
  5
13C0
330
2
100
AcDbEntity
  8
0
100
AcDbLine
 10
446.6962514802848
 20
828.2082318832046
 30
0.0
 11
446.6962514802848
 21
811.1222318832046
 31
0.0
  0
LINE
  5
13C1
330
2
100
AcDbEntity
  8
0
100
AcDbLine
 10
493.1532514802848
 20
828.2082318832046
 30
0.0
 11
493.1532514802848
 21
811.1222318832046
 31
0.0
  0
LINE
  5
13C2
330
2
100
AcDbEntity
  8
0
100
AcDbLine
 10
481.3817514802848
 20
819.6652318832046
 30
0.0
 11
528.4677514802848
 21
819.6652318832046
 31
0.0
  0
LWPOLYLINE
  5
13C3
330
2
100
AcDbEntity
  8
0
100
AcDbPolyline
 90
        4
 70
     1
 43
0.0
 10
478.1747514802848
 20
807.9152318832046
 10
531.6747514802848
 20
807.9152318832046
 10
531.6747514802848
 20
831.4152318832046
 10
478.1747514802848
 20
831.4152318832046
  0
LWPOLYLINE
  5
13C4
330
2
100
AcDbEntity
  8
0
100
AcDbPolyline
 90
        4
 70
     1
 43
0.0
 10
481.3817514802848
 20
811.1222318832046
 10
528.4677514802848
 20
811.1222318832046
 10
528.4677514802848
 20
828.2082318832046
 10
481.3817514802848
 20
828.2082318832046
  0
LWPOLYLINE
  5
13C5
330
2
100
AcDbEntity
  8
0
100
AcDbPolyline
 90
        4
 70
     1
 43
0.0
 10
479.0327514802848
 20
808.7732318832045
 10
530.8167514802849
 20
808.7732318832045
 10
530.8167514802849
 20
830.5572318832046
 10
479.0327514802848
 20
830.5572318832046
  0
LINE
  5
13C6
330
2
100
AcDbEntity
  8
0
100
AcDbLine
 10
504.9247514802848
 20
828.2082318832046
 30
0.0
 11
504.9247514802848
 21
811.1222318832046
 31
0.0
  0
LINE
  5
13C7
330
2
100
AcDbEntity
  8
0
100
AcDbLine
 10
516.6962514802849
 20
828.2082318832046
 30
0.0
 11
516.6962514802849
 21
811.1222318832046
 31
0.0
  0
LINE
  5
13C8
330
2
100
AcDbEntity
  8
0
100
AcDbLine
 10
566.1532514802848
 20
828.2082318832046
 30
0.0
 11
566.1532514802848
 21
811.1222318832046
 31
0.0
  0
LINE
  5
13C9
330
2
100
AcDbEntity
  8
0
100
AcDbLine
 10
552.8817514802848
 20
819.6652318832046
 30
0.0
 11
605.9677514802848
 21
819.6652318832046
 31
0.0
  0
LWPOLYLINE
  5
13CA
330
2
100
AcDbEntity
  8
0
100
AcDbPolyline
 90
        4
 70
     1
 43
0.0
 10
549.6747514802848
 20
807.9152318832046
 10
609.1747514802848
 20
807.9152318832046
 10
609.1747514802848
 20
831.4152318832046
 10
549.6747514802848
 20
831.4152318832046
  0
LWPOLYLINE
  5
13CB
330
2
100
AcDbEntity
  8
0
100
AcDbPolyline
 90
        4
 70
     1
 43
0.0
 10
552.8817514802848
 20
811.1222318832046
 10
605.9677514802848
 20
811.1222318832046
 10
605.9677514802848
 20
828.2082318832046
 10
552.8817514802848
 20
828.2082318832046
  0
LWPOLYLINE
  5
13CC
330
2
100
AcDbEntity
  8
0
100
AcDbPolyline
 90
        4
 70
     1
 43
0.0
 10
550.5327514802848
 20
808.7732318832045
 10
608.3167514802849
 20
808.7732318832045
 10
608.3167514802849
 20
830.5572318832046
 10
550.5327514802848
 20
830.5572318832046
  0
LINE
  5
13CD
330
2
100
AcDbEntity
  8
0
100
AcDbLine
 10
579.4247514802848
 20
828.2082318832046
 30
0.0
 11
579.4247514802848
 21
811.1222318832046
 31
0.0
  0
LINE
  5
13CE
330
2
100
AcDbEntity
  8
0
100
AcDbLine
 10
592.6962514802849
 20
828.2082318832046
 30
0.0
 11
592.6962514802849
 21
811.1222318832046
 31
0.0
  0
LINE
  5
13CF
330
2
100
AcDbEntity
  8
0
100
AcDbLine
 10
164.9247514802848
 20
780.7082318832046
 30
0.0
 11
164.9247514802848
 21
757.6222318832046
 31
0.0
  0
LINE
  5
13D0
330
2
100
AcDbEntity
  8
0
100
AcDbLine
 10
156.3817514802848
 20
769.1652318832046
 30
0.0
 11
173.4677514802848
 21
769.1652318832046
 31
0.0
  0
LWPOLYLINE
  5
13D1
330
2
100
AcDbEntity
  8
0
100
AcDbPolyline
 90
        4
 70
     1
 43
0.0
 10
153.1747514802848
 20
754.4152318832046
 10
176.6747514802848
 20
754.4152318832046
 10
176.6747514802848
 20
783.9152318832046
 10
153.1747514802848
 20
783.9152318832046
  0
LWPOLYLINE
  5
13D2
330
2
100
AcDbEntity
  8
0
100
AcDbPolyline
 90
        4
 70
     1
 43
0.0
 10
156.3817514802848
 20
757.6222318832046
 10
173.4677514802848
 20
757.6222318832046
 10
173.4677514802848
 20
780.7082318832046
 10
156.3817514802848
 20
780.7082318832046
  0
LWPOLYLINE
  5
13D3
330
2
100
AcDbEntity
  8
0
100
AcDbPolyline
 90
        4
 70
     1
 43
0.0
 10
154.0327514802848
 20
755.2732318832045
 10
175.8167514802848
 20
755.2732318832045
 10
175.8167514802848
 20
783.0572318832046
 10
154.0327514802848
 20
783.0572318832046
  0
LINE
  5
13D4
330
2
100
AcDbEntity
  8
0
100
AcDbLine
 10
209.4247514802848
 20
780.7082318832046
 30
0.0
 11
209.4247514802848
 21
757.6222318832046
 31
0.0
  0
LINE
  5
13D5
330
2
100
AcDbEntity
  8
0
100
AcDbLine
 10
197.8817514802848
 20
769.1652318832046
 30
0.0
 11
220.9677514802848
 21
769.1652318832046
 31
0.0
  0
LWPOLYLINE
  5
13D6
330
2
100
AcDbEntity
  8
0
100
AcDbPolyline
 90
        4
 70
     1
 43
0.0
 10
194.6747514802848
 20
754.4152318832046
 10
224.1747514802848
 20
754.4152318832046
 10
224.1747514802848
 20
783.9152318832046
 10
194.6747514802848
 20
783.9152318832046
  0
LWPOLYLINE
  5
13D7
330
2
100
AcDbEntity
  8
0
100
AcDbPolyline
 90
        4
 70
     1
 43
0.0
 10
197.8817514802848
 20
757.6222318832046
 10
220.9677514802848
 20
757.6222318832046
 10
220.9677514802848
 20
780.7082318832046
 10
197.8817514802848
 20
780.7082318832046
  0
LWPOLYLINE
  5
13D8
330
2
100
AcDbEntity
  8
0
100
AcDbPolyline
 90
        4
 70
     1
 43
0.0
 10
195.5327514802848
 20
755.2732318832045
 10
223.3167514802848
 20
755.2732318832045
 10
223.3167514802848
 20
783.0572318832046
 10
195.5327514802848
 20
783.0572318832046
  0
LINE
  5
13D9
330
2
100
AcDbEntity
  8
0
100
AcDbLine
 10
255.0717514802848
 20
780.7082318832046
 30
0.0
 11
255.0717514802848
 21
757.6222318832046
 31
0.0
  0
LINE
  5
13DA
330
2
100
AcDbEntity
  8
0
100
AcDbLine
 10
245.3817514802848
 20
769.1652318832046
 30
0.0
 11
274.4677514802848
 21
769.1652318832046
 31
0.0
  0
LWPOLYLINE
  5
13DB
330
2
100
AcDbEntity
  8
0
100
AcDbPolyline
 90
        4
 70
     1
 43
0.0
 10
242.1747514802848
 20
754.4152318832046
 10
277.6747514802848
 20
754.4152318832046
 10
277.6747514802848
 20
783.9152318832046
 10
242.1747514802848
 20
783.9152318832046
  0
LWPOLYLINE
  5
13DC
330
2
100
AcDbEntity
  8
0
100
AcDbPolyline
 90
        4
 70
     1
 43
0.0
 10
245.3817514802848
 20
757.6222318832046
 10
274.4677514802848
 20
757.6222318832046
 10
274.4677514802848
 20
780.7082318832046
 10
245.3817514802848
 20
780.7082318832046
  0
LWPOLYLINE
  5
13DD
330
2
100
AcDbEntity
  8
0
100
AcDbPolyline
 90
        4
 70
     1
 43
0.0
 10
243.0327514802848
 20
755.2732318832045
 10
276.8167514802848
 20
755.2732318832045
 10
276.8167514802848
 20
783.0572318832046
 10
243.0327514802848
 20
783.0572318832046
  0
LINE
  5
13DE
330
2
100
AcDbEntity
  8
0
100
AcDbLine
 10
264.7777514802848
 20
780.7082318832046
 30
0.0
 11
264.7777514802848
 21
757.6222318832046
 31
0.0
  0
LINE
  5
13DF
330
2
100
AcDbEntity
  8
0
100
AcDbLine
 10
309.9017514802848
 20
780.7082318832046
 30
0.0
 11
309.9017514802848
 21
757.6222318832046
 31
0.0
  0
LINE
  5
13E0
330
2
100
AcDbEntity
  8
0
100
AcDbLine
 10
298.8817514802848
 20
769.1652318832046
 30
0.0
 11
331.9677514802848
 21
769.1652318832046
 31
0.0
  0
LWPOLYLINE
  5
13E1
330
2
100
AcDbEntity
  8
0
100
AcDbPolyline
 90
        4
 70
     1
 43
0.0
 10
295.6747514802848
 20
754.4152318832046
 10
335.1747514802848
 20
754.4152318832046
 10
335.1747514802848
 20
783.9152318832046
 10
295.6747514802848
 20
783.9152318832046
  0
LWPOLYLINE
  5
13E2
330
2
100
AcDbEntity
  8
0
100
AcDbPolyline
 90
        4
 70
     1
 43
0.0
 10
298.8817514802848
 20
757.6222318832046
 10
331.9677514802848
 20
757.6222318832046
 10
331.9677514802848
 20
780.7082318832046
 10
298.8817514802848
 20
780.7082318832046
  0
LWPOLYLINE
  5
13E3
330
2
100
AcDbEntity
  8
0
100
AcDbPolyline
 90
        4
 70
     1
 43
0.0
 10
296.5327514802848
 20
755.2732318832045
 10
334.3167514802848
 20
755.2732318832045
 10
334.3167514802848
 20
783.0572318832046
 10
296.5327514802848
 20
783.0572318832046
  0
LINE
  5
13E4
330
2
100
AcDbEntity
  8
0
100
AcDbLine
 10
320.9477514802849
 20
780.7082318832046
 30
0.0
 11
320.9477514802849
 21
757.6222318832046
 31
0.0
  0
LINE
  5
13E5
330
2
100
AcDbEntity
  8
0
100
AcDbLine
 10
368.0617514802848
 20
780.7082318832046
 30
0.0
 11
368.0617514802848
 21
757.6222318832046
 31
0.0
  0
LINE
  5
13E6
330
2
100
AcDbEntity
  8
0
100
AcDbLine
 10
356.3817514802848
 20
769.1652318832046
 30
0.0
 11
391.4677514802848
 21
769.1652318832046
 31
0.0
  0
LWPOLYLINE
  5
13E7
330
2
100
AcDbEntity
  8
0
100
AcDbPolyline
 90
        4
 70
     1
 43
0.0
 10
353.1747514802848
 20
754.4152318832046
 10
394.6747514802848
 20
754.4152318832046
 10
394.6747514802848
 20
783.9152318832046
 10
353.1747514802848
 20
783.9152318832046
  0
LWPOLYLINE
  5
13E8
330
2
100
AcDbEntity
  8
0
100
AcDbPolyline
 90
        4
 70
     1
 43
0.0
 10
356.3817514802848
 20
757.6222318832046
 10
391.4677514802848
 20
757.6222318832046
 10
391.4677514802848
 20
780.7082318832046
 10
356.3817514802848
 20
780.7082318832046
  0
LWPOLYLINE
  5
13E9
330
2
100
AcDbEntity
  8
0
100
AcDbPolyline
 90
        4
 70
     1
 43
0.0
 10
354.0327514802848
 20
755.2732318832045
 10
393.8167514802848
 20
755.2732318832045
 10
393.8167514802848
 20
783.0572318832046
 10
354.0327514802848
 20
783.0572318832046
  0
LINE
  5
13EA
330
2
100
AcDbEntity
  8
0
100
AcDbLine
 10
379.7877514802848
 20
780.7082318832046
 30
0.0
 11
379.7877514802848
 21
757.6222318832046
 31
0.0
  0
LINE
  5
13EB
330
2
100
AcDbEntity
  8
0
100
AcDbLine
 10
426.1532514802848
 20
780.7082318832046
 30
0.0
 11
426.1532514802848
 21
757.6222318832046
 31
0.0
  0
LINE
  5
13EC
330
2
100
AcDbEntity
  8
0
100
AcDbLine
 10
415.8817514802848
 20
769.1652318832046
 30
0.0
 11
456.9677514802848
 21
769.1652318832046
 31
0.0
  0
LWPOLYLINE
  5
13ED
330
2
100
AcDbEntity
  8
0
100
AcDbPolyline
 90
        4
 70
     1
 43
0.0
 10
412.6747514802848
 20
754.4152318832046
 10
460.1747514802848
 20
754.4152318832046
 10
460.1747514802848
 20
783.9152318832046
 10
412.6747514802848
 20
783.9152318832046
  0
LWPOLYLINE
  5
13EE
330
2
100
AcDbEntity
  8
0
100
AcDbPolyline
 90
        4
 70
     1
 43
0.0
 10
415.8817514802848
 20
757.6222318832046
 10
456.9677514802848
 20
757.6222318832046
 10
456.9677514802848
 20
780.7082318832046
 10
415.8817514802848
 20
780.7082318832046
  0
LWPOLYLINE
  5
13EF
330
2
100
AcDbEntity
  8
0
100
AcDbPolyline
 90
        4
 70
     1
 43
0.0
 10
413.5327514802848
 20
755.2732318832045
 10
459.3167514802848
 20
755.2732318832045
 10
459.3167514802848
 20
783.0572318832046
 10
413.5327514802848
 20
783.0572318832046
  0
LINE
  5
13F0
330
2
100
AcDbEntity
  8
0
100
AcDbLine
 10
436.4247514802848
 20
780.7082318832046
 30
0.0
 11
436.4247514802848
 21
757.6222318832046
 31
0.0
  0
LINE
  5
13F1
330
2
100
AcDbEntity
  8
0
100
AcDbLine
 10
446.6962514802848
 20
780.7082318832046
 30
0.0
 11
446.6962514802848
 21
757.6222318832046
 31
0.0
  0
LINE
  5
13F2
330
2
100
AcDbEntity
  8
0
100
AcDbLine
 10
493.1532514802848
 20
780.7082318832046
 30
0.0
 11
493.1532514802848
 21
757.6222318832046
 31
0.0
  0
LINE
  5
13F3
330
2
100
AcDbEntity
  8
0
100
AcDbLine
 10
481.3817514802848
 20
769.1652318832046
 30
0.0
 11
528.4677514802848
 21
769.1652318832046
 31
0.0
  0
LWPOLYLINE
  5
13F4
330
2
100
AcDbEntity
  8
0
100
AcDbPolyline
 90
        4
 70
     1
 43
0.0
 10
478.1747514802848
 20
754.4152318832046
 10
531.6747514802848
 20
754.4152318832046
 10
531.6747514802848
 20
783.9152318832046
 10
478.1747514802848
 20
783.9152318832046
  0
LWPOLYLINE
  5
13F5
330
2
100
AcDbEntity
  8
0
100
AcDbPolyline
 90
        4
 70
     1
 43
0.0
 10
481.3817514802848
 20
757.6222318832046
 10
528.4677514802848
 20
757.6222318832046
 10
528.4677514802848
 20
780.7082318832046
 10
481.3817514802848
 20
780.7082318832046
  0
LWPOLYLINE
  5
13F6
330
2
100
AcDbEntity
  8
0
100
AcDbPolyline
 90
        4
 70
     1
 43
0.0
 10
479.0327514802848
 20
755.2732318832045
 10
530.8167514802849
 20
755.2732318832045
 10
530.8167514802849
 20
783.0572318832046
 10
479.0327514802848
 20
783.0572318832046
  0
LINE
  5
13F7
330
2
100
AcDbEntity
  8
0
100
AcDbLine
 10
504.9247514802848
 20
780.7082318832046
 30
0.0
 11
504.9247514802848
 21
757.6222318832046
 31
0.0
  0
LINE
  5
13F8
330
2
100
AcDbEntity
  8
0
100
AcDbLine
 10
516.6962514802849
 20
780.7082318832046
 30
0.0
 11
516.6962514802849
 21
757.6222318832046
 31
0.0
  0
LINE
  5
13F9
330
2
100
AcDbEntity
  8
0
100
AcDbLine
 10
566.1532514802848
 20
780.7082318832046
 30
0.0
 11
566.1532514802848
 21
757.6222318832046
 31
0.0
  0
LINE
  5
13FA
330
2
100
AcDbEntity
  8
0
100
AcDbLine
 10
552.8817514802848
 20
769.1652318832046
 30
0.0
 11
605.9677514802848
 21
769.1652318832046
 31
0.0
  0
LWPOLYLINE
  5
13FB
330
2
100
AcDbEntity
  8
0
100
AcDbPolyline
 90
        4
 70
     1
 43
0.0
 10
549.6747514802848
 20
754.4152318832046
 10
609.1747514802848
 20
754.4152318832046
 10
609.1747514802848
 20
783.9152318832046
 10
549.6747514802848
 20
783.9152318832046
  0
LWPOLYLINE
  5
13FC
330
2
100
AcDbEntity
  8
0
100
AcDbPolyline
 90
        4
 70
     1
 43
0.0
 10
552.8817514802848
 20
757.6222318832046
 10
605.9677514802848
 20
757.6222318832046
 10
605.9677514802848
 20
780.7082318832046
 10
552.8817514802848
 20
780.7082318832046
  0
LWPOLYLINE
  5
13FD
330
2
100
AcDbEntity
  8
0
100
AcDbPolyline
 90
        4
 70
     1
 43
0.0
 10
550.5327514802848
 20
755.2732318832045
 10
608.3167514802849
 20
755.2732318832045
 10
608.3167514802849
 20
783.0572318832046
 10
550.5327514802848
 20
783.0572318832046
  0
LINE
  5
13FE
330
2
100
AcDbEntity
  8
0
100
AcDbLine
 10
579.4247514802848
 20
780.7082318832046
 30
0.0
 11
579.4247514802848
 21
757.6222318832046
 31
0.0
  0
LINE
  5
13FF
330
2
100
AcDbEntity
  8
0
100
AcDbLine
 10
592.6962514802849
 20
780.7082318832046
 30
0.0
 11
592.6962514802849
 21
757.6222318832046
 31
0.0
  0
LINE
  5
1400
330
2
100
AcDbEntity
  8
0
100
AcDbLine
 10
164.9247514802848
 20
727.2082318832046
 30
0.0
 11
164.9247514802848
 21
698.1222318832046
 31
0.0
  0
LINE
  5
1401
330
2
100
AcDbEntity
  8
0
100
AcDbLine
 10
156.3817514802848
 20
717.5182318832045
 30
0.0
 11
173.4677514802848
 21
717.5182318832045
 31
0.0
  0
LWPOLYLINE
  5
1402
330
2
100
AcDbEntity
  8
0
100
AcDbPolyline
 90
        4
 70
     1
 43
0.0
 10
153.1747514802848
 20
694.9152318832046
 10
176.6747514802848
 20
694.9152318832046
 10
176.6747514802848
 20
730.4152318832046
 10
153.1747514802848
 20
730.4152318832046
  0
LWPOLYLINE
  5
1403
330
2
100
AcDbEntity
  8
0
100
AcDbPolyline
 90
        4
 70
     1
 43
0.0
 10
156.3817514802848
 20
698.1222318832046
 10
173.4677514802848
 20
698.1222318832046
 10
173.4677514802848
 20
727.2082318832046
 10
156.3817514802848
 20
727.2082318832046
  0
LWPOLYLINE
  5
1404
330
2
100
AcDbEntity
  8
0
100
AcDbPolyline
 90
        4
 70
     1
 43
0.0
 10
154.0327514802848
 20
695.7732318832045
 10
175.8167514802848
 20
695.7732318832045
 10
175.8167514802848
 20
729.5572318832046
 10
154.0327514802848
 20
729.5572318832046
  0
LINE
  5
1405
330
2
100
AcDbEntity
  8
0
100
AcDbLine
 10
209.4247514802848
 20
727.2082318832046
 30
0.0
 11
209.4247514802848
 21
698.1222318832046
 31
0.0
  0
LINE
  5
1406
330
2
100
AcDbEntity
  8
0
100
AcDbLine
 10
197.8817514802848
 20
717.5182318832045
 30
0.0
 11
220.9677514802848
 21
717.5182318832045
 31
0.0
  0
LWPOLYLINE
  5
1407
330
2
100
AcDbEntity
  8
0
100
AcDbPolyline
 90
        4
 70
     1
 43
0.0
 10
194.6747514802848
 20
694.9152318832046
 10
224.1747514802848
 20
694.9152318832046
 10
224.1747514802848
 20
730.4152318832046
 10
194.6747514802848
 20
730.4152318832046
  0
LWPOLYLINE
  5
1408
330
2
100
AcDbEntity
  8
0
100
AcDbPolyline
 90
        4
 70
     1
 43
0.0
 10
197.8817514802848
 20
698.1222318832046
 10
220.9677514802848
 20
698.1222318832046
 10
220.9677514802848
 20
727.2082318832046
 10
197.8817514802848
 20
727.2082318832046
  0
LWPOLYLINE
  5
1409
330
2
100
AcDbEntity
  8
0
100
AcDbPolyline
 90
        4
 70
     1
 43
0.0
 10
195.5327514802848
 20
695.7732318832045
 10
223.3167514802848
 20
695.7732318832045
 10
223.3167514802848
 20
729.5572318832046
 10
195.5327514802848
 20
729.5572318832046
  0
LINE
  5
140A
330
2
100
AcDbEntity
  8
0
100
AcDbLine
 10
255.0717514802848
 20
727.2082318832046
 30
0.0
 11
255.0717514802848
 21
698.1222318832046
 31
0.0
  0
LINE
  5
140B
330
2
100
AcDbEntity
  8
0
100
AcDbLine
 10
245.3817514802848
 20
717.5182318832045
 30
0.0
 11
274.4677514802848
 21
717.5182318832045
 31
0.0
  0
LWPOLYLINE
  5
140C
330
2
100
AcDbEntity
  8
0
100
AcDbPolyline
 90
        4
 70
     1
 43
0.0
 10
242.1747514802848
 20
694.9152318832046
 10
277.6747514802848
 20
694.9152318832046
 10
277.6747514802848
 20
730.4152318832046
 10
242.1747514802848
 20
730.4152318832046
  0
LWPOLYLINE
  5
140D
330
2
100
AcDbEntity
  8
0
100
AcDbPolyline
 90
        4
 70
     1
 43
0.0
 10
245.3817514802848
 20
698.1222318832046
 10
274.4677514802848
 20
698.1222318832046
 10
274.4677514802848
 20
727.2082318832046
 10
245.3817514802848
 20
727.2082318832046
  0
LWPOLYLINE
  5
140E
330
2
100
AcDbEntity
  8
0
100
AcDbPolyline
 90
        4
 70
     1
 43
0.0
 10
243.0327514802848
 20
695.7732318832045
 10
276.8167514802848
 20
695.7732318832045
 10
276.8167514802848
 20
729.5572318832046
 10
243.0327514802848
 20
729.5572318832046
  0
LINE
  5
140F
330
2
100
AcDbEntity
  8
0
100
AcDbLine
 10
264.7777514802848
 20
727.2082318832046
 30
0.0
 11
264.7777514802848
 21
698.1222318832046
 31
0.0
  0
LINE
  5
1410
330
2
100
AcDbEntity
  8
0
100
AcDbLine
 10
309.9017514802848
 20
727.2082318832046
 30
0.0
 11
309.9017514802848
 21
698.1222318832046
 31
0.0
  0
LINE
  5
1411
330
2
100
AcDbEntity
  8
0
100
AcDbLine
 10
298.8817514802848
 20
717.5182318832045
 30
0.0
 11
331.9677514802848
 21
717.5182318832045
 31
0.0
  0
LWPOLYLINE
  5
1412
330
2
100
AcDbEntity
  8
0
100
AcDbPolyline
 90
        4
 70
     1
 43
0.0
 10
295.6747514802848
 20
694.9152318832046
 10
335.1747514802848
 20
694.9152318832046
 10
335.1747514802848
 20
730.4152318832046
 10
295.6747514802848
 20
730.4152318832046
  0
LWPOLYLINE
  5
1413
330
2
100
AcDbEntity
  8
0
100
AcDbPolyline
 90
        4
 70
     1
 43
0.0
 10
298.8817514802848
 20
698.1222318832046
 10
331.9677514802848
 20
698.1222318832046
 10
331.9677514802848
 20
727.2082318832046
 10
298.8817514802848
 20
727.2082318832046
  0
LWPOLYLINE
  5
1414
330
2
100
AcDbEntity
  8
0
100
AcDbPolyline
 90
        4
 70
     1
 43
0.0
 10
296.5327514802848
 20
695.7732318832045
 10
334.3167514802848
 20
695.7732318832045
 10
334.3167514802848
 20
729.5572318832046
 10
296.5327514802848
 20
729.5572318832046
  0
LINE
  5
1415
330
2
100
AcDbEntity
  8
0
100
AcDbLine
 10
320.9477514802849
 20
727.2082318832046
 30
0.0
 11
320.9477514802849
 21
698.1222318832046
 31
0.0
  0
LINE
  5
1416
330
2
100
AcDbEntity
  8
0
100
AcDbLine
 10
368.0617514802848
 20
727.2082318832046
 30
0.0
 11
368.0617514802848
 21
698.1222318832046
 31
0.0
  0
LINE
  5
1417
330
2
100
AcDbEntity
  8
0
100
AcDbLine
 10
356.3817514802848
 20
717.5182318832045
 30
0.0
 11
391.4677514802848
 21
717.5182318832045
 31
0.0
  0
LWPOLYLINE
  5
1418
330
2
100
AcDbEntity
  8
0
100
AcDbPolyline
 90
        4
 70
     1
 43
0.0
 10
353.1747514802848
 20
694.9152318832046
 10
394.6747514802848
 20
694.9152318832046
 10
394.6747514802848
 20
730.4152318832046
 10
353.1747514802848
 20
730.4152318832046
  0
LWPOLYLINE
  5
1419
330
2
100
AcDbEntity
  8
0
100
AcDbPolyline
 90
        4
 70
     1
 43
0.0
 10
356.3817514802848
 20
698.1222318832046
 10
391.4677514802848
 20
698.1222318832046
 10
391.4677514802848
 20
727.2082318832046
 10
356.3817514802848
 20
727.2082318832046
  0
LWPOLYLINE
  5
141A
330
2
100
AcDbEntity
  8
0
100
AcDbPolyline
 90
        4
 70
     1
 43
0.0
 10
354.0327514802848
 20
695.7732318832045
 10
393.8167514802848
 20
695.7732318832045
 10
393.8167514802848
 20
729.5572318832046
 10
354.0327514802848
 20
729.5572318832046
  0
LINE
  5
141B
330
2
100
AcDbEntity
  8
0
100
AcDbLine
 10
379.7877514802848
 20
727.2082318832046
 30
0.0
 11
379.7877514802848
 21
698.1222318832046
 31
0.0
  0
LINE
  5
141C
330
2
100
AcDbEntity
  8
0
100
AcDbLine
 10
426.1532514802848
 20
727.2082318832046
 30
0.0
 11
426.1532514802848
 21
698.1222318832046
 31
0.0
  0
LINE
  5
141D
330
2
100
AcDbEntity
  8
0
100
AcDbLine
 10
415.8817514802848
 20
717.5182318832045
 30
0.0
 11
456.9677514802848
 21
717.5182318832045
 31
0.0
  0
LWPOLYLINE
  5
141E
330
2
100
AcDbEntity
  8
0
100
AcDbPolyline
 90
        4
 70
     1
 43
0.0
 10
412.6747514802848
 20
694.9152318832046
 10
460.1747514802848
 20
694.9152318832046
 10
460.1747514802848
 20
730.4152318832046
 10
412.6747514802848
 20
730.4152318832046
  0
LWPOLYLINE
  5
141F
330
2
100
AcDbEntity
  8
0
100
AcDbPolyline
 90
        4
 70
     1
 43
0.0
 10
415.8817514802848
 20
698.1222318832046
 10
456.9677514802848
 20
698.1222318832046
 10
456.9677514802848
 20
727.2082318832046
 10
415.8817514802848
 20
727.2082318832046
  0
LWPOLYLINE
  5
1420
330
2
100
AcDbEntity
  8
0
100
AcDbPolyline
 90
        4
 70
     1
 43
0.0
 10
413.5327514802848
 20
695.7732318832045
 10
459.3167514802848
 20
695.7732318832045
 10
459.3167514802848
 20
729.5572318832046
 10
413.5327514802848
 20
729.5572318832046
  0
LINE
  5
1421
330
2
100
AcDbEntity
  8
0
100
AcDbLine
 10
436.4247514802848
 20
727.2082318832046
 30
0.0
 11
436.4247514802848
 21
698.1222318832046
 31
0.0
  0
LINE
  5
1422
330
2
100
AcDbEntity
  8
0
100
AcDbLine
 10
446.6962514802848
 20
727.2082318832046
 30
0.0
 11
446.6962514802848
 21
698.1222318832046
 31
0.0
  0
LINE
  5
1423
330
2
100
AcDbEntity
  8
0
100
AcDbLine
 10
493.1532514802848
 20
727.2082318832046
 30
0.0
 11
493.1532514802848
 21
698.1222318832046
 31
0.0
  0
LINE
  5
1424
330
2
100
AcDbEntity
  8
0
100
AcDbLine
 10
481.3817514802848
 20
717.5182318832045
 30
0.0
 11
528.4677514802848
 21
717.5182318832045
 31
0.0
  0
LWPOLYLINE
  5
1425
330
2
100
AcDbEntity
  8
0
100
AcDbPolyline
 90
        4
 70
     1
 43
0.0
 10
478.1747514802848
 20
694.9152318832046
 10
531.6747514802848
 20
694.9152318832046
 10
531.6747514802848
 20
730.4152318832046
 10
478.1747514802848
 20
730.4152318832046
  0
LWPOLYLINE
  5
1426
330
2
100
AcDbEntity
  8
0
100
AcDbPolyline
 90
        4
 70
     1
 43
0.0
 10
481.3817514802848
 20
698.1222318832046
 10
528.4677514802848
 20
698.1222318832046
 10
528.4677514802848
 20
727.2082318832046
 10
481.3817514802848
 20
727.2082318832046
  0
LWPOLYLINE
  5
1427
330
2
100
AcDbEntity
  8
0
100
AcDbPolyline
 90
        4
 70
     1
 43
0.0
 10
479.0327514802848
 20
695.7732318832045
 10
530.8167514802849
 20
695.7732318832045
 10
530.8167514802849
 20
729.5572318832046
 10
479.0327514802848
 20
729.5572318832046
  0
LINE
  5
1428
330
2
100
AcDbEntity
  8
0
100
AcDbLine
 10
504.9247514802848
 20
727.2082318832046
 30
0.0
 11
504.9247514802848
 21
698.1222318832046
 31
0.0
  0
LINE
  5
1429
330
2
100
AcDbEntity
  8
0
100
AcDbLine
 10
516.6962514802849
 20
727.2082318832046
 30
0.0
 11
516.6962514802849
 21
698.1222318832046
 31
0.0
  0
LINE
  5
142A
330
2
100
AcDbEntity
  8
0
100
AcDbLine
 10
566.1532514802848
 20
727.2082318832046
 30
0.0
 11
566.1532514802848
 21
698.1222318832046
 31
0.0
  0
LINE
  5
142B
330
2
100
AcDbEntity
  8
0
100
AcDbLine
 10
552.8817514802848
 20
717.5182318832045
 30
0.0
 11
605.9677514802848
 21
717.5182318832045
 31
0.0
  0
LWPOLYLINE
  5
142C
330
2
100
AcDbEntity
  8
0
100
AcDbPolyline
 90
        4
 70
     1
 43
0.0
 10
549.6747514802848
 20
694.9152318832046
 10
609.1747514802848
 20
694.9152318832046
 10
609.1747514802848
 20
730.4152318832046
 10
549.6747514802848
 20
730.4152318832046
  0
LWPOLYLINE
  5
142D
330
2
100
AcDbEntity
  8
0
100
AcDbPolyline
 90
        4
 70
     1
 43
0.0
 10
552.8817514802848
 20
698.1222318832046
 10
605.9677514802848
 20
698.1222318832046
 10
605.9677514802848
 20
727.2082318832046
 10
552.8817514802848
 20
727.2082318832046
  0
LWPOLYLINE
  5
142E
330
2
100
AcDbEntity
  8
0
100
AcDbPolyline
 90
        4
 70
     1
 43
0.0
 10
550.5327514802848
 20
695.7732318832045
 10
608.3167514802849
 20
695.7732318832045
 10
608.3167514802849
 20
729.5572318832046
 10
550.5327514802848
 20
729.5572318832046
  0
LINE
  5
142F
330
2
100
AcDbEntity
  8
0
100
AcDbLine
 10
579.4247514802848
 20
727.2082318832046
 30
0.0
 11
579.4247514802848
 21
698.1222318832046
 31
0.0
  0
LINE
  5
1430
330
2
100
AcDbEntity
  8
0
100
AcDbLine
 10
592.6962514802849
 20
727.2082318832046
 30
0.0
 11
592.6962514802849
 21
698.1222318832046
 31
0.0
  0
LINE
  5
1431
330
2
100
AcDbEntity
  8
0
100
AcDbLine
 10
156.3817514802848
 20
707.8122318832046
 30
0.0
 11
173.4677514802848
 21
707.8122318832046
 31
0.0
  0
LINE
  5
1432
330
2
100
AcDbEntity
  8
0
100
AcDbLine
 10
197.8817514802848
 20
707.8122318832046
 30
0.0
 11
220.9677514802848
 21
707.8122318832046
 31
0.0
  0
LINE
  5
1433
330
2
100
AcDbEntity
  8
0
100
AcDbLine
 10
245.3817514802848
 20
707.8122318832046
 30
0.0
 11
274.4677514802848
 21
707.8122318832046
 31
0.0
  0
LINE
  5
1434
330
2
100
AcDbEntity
  8
0
100
AcDbLine
 10
298.8817514802848
 20
707.8122318832046
 30
0.0
 11
331.9677514802848
 21
707.8122318832046
 31
0.0
  0
LINE
  5
1435
330
2
100
AcDbEntity
  8
0
100
AcDbLine
 10
356.3817514802848
 20
707.8122318832046
 30
0.0
 11
391.4677514802848
 21
707.8122318832046
 31
0.0
  0
LINE
  5
1436
330
2
100
AcDbEntity
  8
0
100
AcDbLine
 10
415.8817514802848
 20
707.8122318832046
 30
0.0
 11
456.9677514802848
 21
707.8122318832046
 31
0.0
  0
LINE
  5
1437
330
2
100
AcDbEntity
  8
0
100
AcDbLine
 10
481.3817514802848
 20
707.8122318832046
 30
0.0
 11
528.4677514802848
 21
707.8122318832046
 31
0.0
  0
LINE
  5
1438
330
2
100
AcDbEntity
  8
0
100
AcDbLine
 10
552.8817514802848
 20
707.8122318832046
 30
0.0
 11
605.9677514802848
 21
707.8122318832046
 31
0.0
  0
LINE
  5
1439
330
2
100
AcDbEntity
  8
0
100
AcDbLine
 10
164.9247514802848
 20
667.7082318832046
 30
0.0
 11
164.9247514802848
 21
634.6222318832046
 31
0.0
  0
LINE
  5
143A
330
2
100
AcDbEntity
  8
0
100
AcDbLine
 10
156.3817514802848
 20
656.6882318832045
 30
0.0
 11
173.4677514802848
 21
656.6882318832045
 31
0.0
  0
LWPOLYLINE
  5
143B
330
2
100
AcDbEntity
  8
0
100
AcDbPolyline
 90
        4
 70
     1
 43
0.0
 10
153.1747514802848
 20
631.4152318832046
 10
176.6747514802848
 20
631.4152318832046
 10
176.6747514802848
 20
670.9152318832046
 10
153.1747514802848
 20
670.9152318832046
  0
LWPOLYLINE
  5
143C
330
2
100
AcDbEntity
  8
0
100
AcDbPolyline
 90
        4
 70
     1
 43
0.0
 10
156.3817514802848
 20
634.6222318832046
 10
173.4677514802848
 20
634.6222318832046
 10
173.4677514802848
 20
667.7082318832046
 10
156.3817514802848
 20
667.7082318832046
  0
LWPOLYLINE
  5
143D
330
2
100
AcDbEntity
  8
0
100
AcDbPolyline
 90
        4
 70
     1
 43
0.0
 10
154.0327514802848
 20
632.2732318832045
 10
175.8167514802848
 20
632.2732318832045
 10
175.8167514802848
 20
670.0572318832046
 10
154.0327514802848
 20
670.0572318832046
  0
LINE
  5
143E
330
2
100
AcDbEntity
  8
0
100
AcDbLine
 10
209.4247514802848
 20
667.7082318832046
 30
0.0
 11
209.4247514802848
 21
634.6222318832046
 31
0.0
  0
LINE
  5
143F
330
2
100
AcDbEntity
  8
0
100
AcDbLine
 10
197.8817514802848
 20
656.6882318832045
 30
0.0
 11
220.9677514802848
 21
656.6882318832045
 31
0.0
  0
LWPOLYLINE
  5
1440
330
2
100
AcDbEntity
  8
0
100
AcDbPolyline
 90
        4
 70
     1
 43
0.0
 10
194.6747514802848
 20
631.4152318832046
 10
224.1747514802848
 20
631.4152318832046
 10
224.1747514802848
 20
670.9152318832046
 10
194.6747514802848
 20
670.9152318832046
  0
LWPOLYLINE
  5
1441
330
2
100
AcDbEntity
  8
0
100
AcDbPolyline
 90
        4
 70
     1
 43
0.0
 10
197.8817514802848
 20
634.6222318832046
 10
220.9677514802848
 20
634.6222318832046
 10
220.9677514802848
 20
667.7082318832046
 10
197.8817514802848
 20
667.7082318832046
  0
LWPOLYLINE
  5
1442
330
2
100
AcDbEntity
  8
0
100
AcDbPolyline
 90
        4
 70
     1
 43
0.0
 10
195.5327514802848
 20
632.2732318832045
 10
223.3167514802848
 20
632.2732318832045
 10
223.3167514802848
 20
670.0572318832046
 10
195.5327514802848
 20
670.0572318832046
  0
LINE
  5
1443
330
2
100
AcDbEntity
  8
0
100
AcDbLine
 10
255.0717514802848
 20
667.7082318832046
 30
0.0
 11
255.0717514802848
 21
634.6222318832046
 31
0.0
  0
LINE
  5
1444
330
2
100
AcDbEntity
  8
0
100
AcDbLine
 10
245.3817514802848
 20
656.6882318832045
 30
0.0
 11
274.4677514802848
 21
656.6882318832045
 31
0.0
  0
LWPOLYLINE
  5
1445
330
2
100
AcDbEntity
  8
0
100
AcDbPolyline
 90
        4
 70
     1
 43
0.0
 10
242.1747514802848
 20
631.4152318832046
 10
277.6747514802848
 20
631.4152318832046
 10
277.6747514802848
 20
670.9152318832046
 10
242.1747514802848
 20
670.9152318832046
  0
LWPOLYLINE
  5
1446
330
2
100
AcDbEntity
  8
0
100
AcDbPolyline
 90
        4
 70
     1
 43
0.0
 10
245.3817514802848
 20
634.6222318832046
 10
274.4677514802848
 20
634.6222318832046
 10
274.4677514802848
 20
667.7082318832046
 10
245.3817514802848
 20
667.7082318832046
  0
LWPOLYLINE
  5
1447
330
2
100
AcDbEntity
  8
0
100
AcDbPolyline
 90
        4
 70
     1
 43
0.0
 10
243.0327514802848
 20
632.2732318832045
 10
276.8167514802848
 20
632.2732318832045
 10
276.8167514802848
 20
670.0572318832046
 10
243.0327514802848
 20
670.0572318832046
  0
LINE
  5
1448
330
2
100
AcDbEntity
  8
0
100
AcDbLine
 10
264.7777514802848
 20
667.7082318832046
 30
0.0
 11
264.7777514802848
 21
634.6222318832046
 31
0.0
  0
LINE
  5
1449
330
2
100
AcDbEntity
  8
0
100
AcDbLine
 10
309.9017514802848
 20
667.7082318832046
 30
0.0
 11
309.9017514802848
 21
634.6222318832046
 31
0.0
  0
LINE
  5
144A
330
2
100
AcDbEntity
  8
0
100
AcDbLine
 10
298.8817514802848
 20
656.6882318832045
 30
0.0
 11
331.9677514802848
 21
656.6882318832045
 31
0.0
  0
LWPOLYLINE
  5
144B
330
2
100
AcDbEntity
  8
0
100
AcDbPolyline
 90
        4
 70
     1
 43
0.0
 10
295.6747514802848
 20
631.4152318832046
 10
335.1747514802848
 20
631.4152318832046
 10
335.1747514802848
 20
670.9152318832046
 10
295.6747514802848
 20
670.9152318832046
  0
LWPOLYLINE
  5
144C
330
2
100
AcDbEntity
  8
0
100
AcDbPolyline
 90
        4
 70
     1
 43
0.0
 10
298.8817514802848
 20
634.6222318832046
 10
331.9677514802848
 20
634.6222318832046
 10
331.9677514802848
 20
667.7082318832046
 10
298.8817514802848
 20
667.7082318832046
  0
LWPOLYLINE
  5
144D
330
2
100
AcDbEntity
  8
0
100
AcDbPolyline
 90
        4
 70
     1
 43
0.0
 10
296.5327514802848
 20
632.2732318832045
 10
334.3167514802848
 20
632.2732318832045
 10
334.3167514802848
 20
670.0572318832046
 10
296.5327514802848
 20
670.0572318832046
  0
LINE
  5
144E
330
2
100
AcDbEntity
  8
0
100
AcDbLine
 10
320.9477514802849
 20
667.7082318832046
 30
0.0
 11
320.9477514802849
 21
634.6222318832046
 31
0.0
  0
LINE
  5
144F
330
2
100
AcDbEntity
  8
0
100
AcDbLine
 10
368.0617514802848
 20
667.7082318832046
 30
0.0
 11
368.0617514802848
 21
634.6222318832046
 31
0.0
  0
LINE
  5
1450
330
2
100
AcDbEntity
  8
0
100
AcDbLine
 10
356.3817514802848
 20
656.6882318832045
 30
0.0
 11
391.4677514802848
 21
656.6882318832045
 31
0.0
  0
LWPOLYLINE
  5
1451
330
2
100
AcDbEntity
  8
0
100
AcDbPolyline
 90
        4
 70
     1
 43
0.0
 10
353.1747514802848
 20
631.4152318832046
 10
394.6747514802848
 20
631.4152318832046
 10
394.6747514802848
 20
670.9152318832046
 10
353.1747514802848
 20
670.9152318832046
  0
LWPOLYLINE
  5
1452
330
2
100
AcDbEntity
  8
0
100
AcDbPolyline
 90
        4
 70
     1
 43
0.0
 10
356.3817514802848
 20
634.6222318832046
 10
391.4677514802848
 20
634.6222318832046
 10
391.4677514802848
 20
667.7082318832046
 10
356.3817514802848
 20
667.7082318832046
  0
LWPOLYLINE
  5
1453
330
2
100
AcDbEntity
  8
0
100
AcDbPolyline
 90
        4
 70
     1
 43
0.0
 10
354.0327514802848
 20
632.2732318832045
 10
393.8167514802848
 20
632.2732318832045
 10
393.8167514802848
 20
670.0572318832046
 10
354.0327514802848
 20
670.0572318832046
  0
LINE
  5
1454
330
2
100
AcDbEntity
  8
0
100
AcDbLine
 10
379.7877514802848
 20
667.7082318832046
 30
0.0
 11
379.7877514802848
 21
634.6222318832046
 31
0.0
  0
LINE
  5
1455
330
2
100
AcDbEntity
  8
0
100
AcDbLine
 10
156.3817514802848
 20
645.6422318832047
 30
0.0
 11
173.4677514802848
 21
645.6422318832047
 31
0.0
  0
LINE
  5
1456
330
2
100
AcDbEntity
  8
0
100
AcDbLine
 10
197.8817514802848
 20
645.6422318832047
 30
0.0
 11
220.9677514802848
 21
645.6422318832047
 31
0.0
  0
LINE
  5
1457
330
2
100
AcDbEntity
  8
0
100
AcDbLine
 10
245.3817514802848
 20
645.6422318832047
 30
0.0
 11
274.4677514802848
 21
645.6422318832047
 31
0.0
  0
LINE
  5
1458
330
2
100
AcDbEntity
  8
0
100
AcDbLine
 10
298.8817514802848
 20
645.6422318832047
 30
0.0
 11
331.9677514802848
 21
645.6422318832047
 31
0.0
  0
LINE
  5
1459
330
2
100
AcDbEntity
  8
0
100
AcDbLine
 10
356.3817514802848
 20
645.6422318832047
 30
0.0
 11
391.4677514802848
 21
645.6422318832047
 31
0.0
  0
LINE
  5
145A
330
2
100
AcDbEntity
  8
0
100
AcDbLine
 10
164.9247514802848
 20
604.2082318832046
 30
0.0
 11
164.9247514802848
 21
569.1222318832046
 31
0.0
  0
LINE
  5
145B
330
2
100
AcDbEntity
  8
0
100
AcDbLine
 10
156.3817514802848
 20
592.5282318832045
 30
0.0
 11
173.4677514802848
 21
592.5282318832045
 31
0.0
  0
LWPOLYLINE
  5
145C
330
2
100
AcDbEntity
  8
0
100
AcDbPolyline
 90
        4
 70
     1
 43
0.0
 10
153.1747514802848
 20
565.9152318832046
 10
176.6747514802848
 20
565.9152318832046
 10
176.6747514802848
 20
607.4152318832046
 10
153.1747514802848
 20
607.4152318832046
  0
LWPOLYLINE
  5
145D
330
2
100
AcDbEntity
  8
0
100
AcDbPolyline
 90
        4
 70
     1
 43
0.0
 10
156.3817514802848
 20
569.1222318832046
 10
173.4677514802848
 20
569.1222318832046
 10
173.4677514802848
 20
604.2082318832046
 10
156.3817514802848
 20
604.2082318832046
  0
LWPOLYLINE
  5
145E
330
2
100
AcDbEntity
  8
0
100
AcDbPolyline
 90
        4
 70
     1
 43
0.0
 10
154.0327514802848
 20
566.7732318832045
 10
175.8167514802848
 20
566.7732318832045
 10
175.8167514802848
 20
606.5572318832046
 10
154.0327514802848
 20
606.5572318832046
  0
LINE
  5
145F
330
2
100
AcDbEntity
  8
0
100
AcDbLine
 10
209.4247514802848
 20
604.2082318832046
 30
0.0
 11
209.4247514802848
 21
569.1222318832046
 31
0.0
  0
LINE
  5
1460
330
2
100
AcDbEntity
  8
0
100
AcDbLine
 10
197.8817514802848
 20
592.5282318832045
 30
0.0
 11
220.9677514802848
 21
592.5282318832045
 31
0.0
  0
LWPOLYLINE
  5
1461
330
2
100
AcDbEntity
  8
0
100
AcDbPolyline
 90
        4
 70
     1
 43
0.0
 10
194.6747514802848
 20
565.9152318832046
 10
224.1747514802848
 20
565.9152318832046
 10
224.1747514802848
 20
607.4152318832046
 10
194.6747514802848
 20
607.4152318832046
  0
LWPOLYLINE
  5
1462
330
2
100
AcDbEntity
  8
0
100
AcDbPolyline
 90
        4
 70
     1
 43
0.0
 10
197.8817514802848
 20
569.1222318832046
 10
220.9677514802848
 20
569.1222318832046
 10
220.9677514802848
 20
604.2082318832046
 10
197.8817514802848
 20
604.2082318832046
  0
LWPOLYLINE
  5
1463
330
2
100
AcDbEntity
  8
0
100
AcDbPolyline
 90
        4
 70
     1
 43
0.0
 10
195.5327514802848
 20
566.7732318832045
 10
223.3167514802848
 20
566.7732318832045
 10
223.3167514802848
 20
606.5572318832046
 10
195.5327514802848
 20
606.5572318832046
  0
LINE
  5
1464
330
2
100
AcDbEntity
  8
0
100
AcDbLine
 10
255.0717514802848
 20
604.2082318832046
 30
0.0
 11
255.0717514802848
 21
569.1222318832046
 31
0.0
  0
LINE
  5
1465
330
2
100
AcDbEntity
  8
0
100
AcDbLine
 10
245.3817514802848
 20
592.5282318832045
 30
0.0
 11
274.4677514802848
 21
592.5282318832045
 31
0.0
  0
LWPOLYLINE
  5
1466
330
2
100
AcDbEntity
  8
0
100
AcDbPolyline
 90
        4
 70
     1
 43
0.0
 10
242.1747514802848
 20
565.9152318832046
 10
277.6747514802848
 20
565.9152318832046
 10
277.6747514802848
 20
607.4152318832046
 10
242.1747514802848
 20
607.4152318832046
  0
LWPOLYLINE
  5
1467
330
2
100
AcDbEntity
  8
0
100
AcDbPolyline
 90
        4
 70
     1
 43
0.0
 10
245.3817514802848
 20
569.1222318832046
 10
274.4677514802848
 20
569.1222318832046
 10
274.4677514802848
 20
604.2082318832046
 10
245.3817514802848
 20
604.2082318832046
  0
LWPOLYLINE
  5
1468
330
2
100
AcDbEntity
  8
0
100
AcDbPolyline
 90
        4
 70
     1
 43
0.0
 10
243.0327514802848
 20
566.7732318832045
 10
276.8167514802848
 20
566.7732318832045
 10
276.8167514802848
 20
606.5572318832046
 10
243.0327514802848
 20
606.5572318832046
  0
LINE
  5
1469
330
2
100
AcDbEntity
  8
0
100
AcDbLine
 10
264.7777514802848
 20
604.2082318832046
 30
0.0
 11
264.7777514802848
 21
569.1222318832046
 31
0.0
  0
LINE
  5
146A
330
2
100
AcDbEntity
  8
0
100
AcDbLine
 10
309.9017514802848
 20
604.2082318832046
 30
0.0
 11
309.9017514802848
 21
569.1222318832046
 31
0.0
  0
LINE
  5
146B
330
2
100
AcDbEntity
  8
0
100
AcDbLine
 10
298.8817514802848
 20
592.5282318832045
 30
0.0
 11
331.9677514802848
 21
592.5282318832045
 31
0.0
  0
LWPOLYLINE
  5
146C
330
2
100
AcDbEntity
  8
0
100
AcDbPolyline
 90
        4
 70
     1
 43
0.0
 10
295.6747514802848
 20
565.9152318832046
 10
335.1747514802848
 20
565.9152318832046
 10
335.1747514802848
 20
607.4152318832046
 10
295.6747514802848
 20
607.4152318832046
  0
LWPOLYLINE
  5
146D
330
2
100
AcDbEntity
  8
0
100
AcDbPolyline
 90
        4
 70
     1
 43
0.0
 10
298.8817514802848
 20
569.1222318832046
 10
331.9677514802848
 20
569.1222318832046
 10
331.9677514802848
 20
604.2082318832046
 10
298.8817514802848
 20
604.2082318832046
  0
LWPOLYLINE
  5
146E
330
2
100
AcDbEntity
  8
0
100
AcDbPolyline
 90
        4
 70
     1
 43
0.0
 10
296.5327514802848
 20
566.7732318832045
 10
334.3167514802848
 20
566.7732318832045
 10
334.3167514802848
 20
606.5572318832046
 10
296.5327514802848
 20
606.5572318832046
  0
LINE
  5
146F
330
2
100
AcDbEntity
  8
0
100
AcDbLine
 10
320.9477514802849
 20
604.2082318832046
 30
0.0
 11
320.9477514802849
 21
569.1222318832046
 31
0.0
  0
LINE
  5
1470
330
2
100
AcDbEntity
  8
0
100
AcDbLine
 10
368.0617514802848
 20
604.2082318832046
 30
0.0
 11
368.0617514802848
 21
569.1222318832046
 31
0.0
  0
LINE
  5
1471
330
2
100
AcDbEntity
  8
0
100
AcDbLine
 10
356.3817514802848
 20
592.5282318832045
 30
0.0
 11
391.4677514802848
 21
592.5282318832045
 31
0.0
  0
LWPOLYLINE
  5
1472
330
2
100
AcDbEntity
  8
0
100
AcDbPolyline
 90
        4
 70
     1
 43
0.0
 10
353.1747514802848
 20
565.9152318832046
 10
394.6747514802848
 20
565.9152318832046
 10
394.6747514802848
 20
607.4152318832046
 10
353.1747514802848
 20
607.4152318832046
  0
LWPOLYLINE
  5
1473
330
2
100
AcDbEntity
  8
0
100
AcDbPolyline
 90
        4
 70
     1
 43
0.0
 10
356.3817514802848
 20
569.1222318832046
 10
391.4677514802848
 20
569.1222318832046
 10
391.4677514802848
 20
604.2082318832046
 10
356.3817514802848
 20
604.2082318832046
  0
LWPOLYLINE
  5
1474
330
2
100
AcDbEntity
  8
0
100
AcDbPolyline
 90
        4
 70
     1
 43
0.0
 10
354.0327514802848
 20
566.7732318832045
 10
393.8167514802848
 20
566.7732318832045
 10
393.8167514802848
 20
606.5572318832046
 10
354.0327514802848
 20
606.5572318832046
  0
LINE
  5
1475
330
2
100
AcDbEntity
  8
0
100
AcDbLine
 10
379.7877514802848
 20
604.2082318832046
 30
0.0
 11
379.7877514802848
 21
569.1222318832046
 31
0.0
  0
LINE
  5
1476
330
2
100
AcDbEntity
  8
0
100
AcDbLine
 10
156.3817514802848
 20
580.8022318832046
 30
0.0
 11
173.4677514802848
 21
580.8022318832046
 31
0.0
  0
LINE
  5
1477
330
2
100
AcDbEntity
  8
0
100
AcDbLine
 10
197.8817514802848
 20
580.8022318832046
 30
0.0
 11
220.9677514802848
 21
580.8022318832046
 31
0.0
  0
LINE
  5
1478
330
2
100
AcDbEntity
  8
0
100
AcDbLine
 10
245.3817514802848
 20
580.8022318832046
 30
0.0
 11
274.4677514802848
 21
580.8022318832046
 31
0.0
  0
LINE
  5
1479
330
2
100
AcDbEntity
  8
0
100
AcDbLine
 10
298.8817514802848
 20
580.8022318832046
 30
0.0
 11
331.9677514802848
 21
580.8022318832046
 31
0.0
  0
LINE
  5
147A
330
2
100
AcDbEntity
  8
0
100
AcDbLine
 10
356.3817514802848
 20
580.8022318832046
 30
0.0
 11
391.4677514802848
 21
580.8022318832046
 31
0.0
  0
LINE
  5
147B
330
2
100
AcDbEntity
  8
0
  6
HIDDEN
100
AcDbLine
 10
154.0327514802848
 20
856.2732318832045
 30
0.0
 11
164.9247514802848
 21
872.0572318832046
 31
0.0
  0
LINE
  5
147C
330
2
100
AcDbEntity
  8
0
  6
HIDDEN
100
AcDbLine
 10
164.9247514802848
 20
872.0572318832046
 30
0.0
 11
175.8167514802848
 21
856.2732318832045
 31
0.0
  0
LINE
  5
147D
330
2
100
AcDbEntity
  8
0
  6
HIDDEN
100
AcDbLine
 10
195.5327514802848
 20
856.2732318832045
 30
0.0
 11
209.4247514802848
 21
872.0572318832046
 31
0.0
  0
LINE
  5
147E
330
2
100
AcDbEntity
  8
0
  6
HIDDEN
100
AcDbLine
 10
209.4247514802848
 20
872.0572318832046
 30
0.0
 11
223.3167514802848
 21
856.2732318832045
 31
0.0
  0
LINE
  5
147F
330
2
100
AcDbEntity
  8
0
  6
HIDDEN
100
AcDbLine
 10
243.0327514802848
 20
856.2732318832045
 30
0.0
 11
259.9247514802848
 21
872.0572318832046
 31
0.0
  0
LINE
  5
1480
330
2
100
AcDbEntity
  8
0
  6
HIDDEN
100
AcDbLine
 10
259.9247514802848
 20
872.0572318832046
 30
0.0
 11
276.8167514802848
 21
856.2732318832045
 31
0.0
  0
LINE
  5
1481
330
2
100
AcDbEntity
  8
0
  6
HIDDEN
100
AcDbLine
 10
296.5327514802848
 20
856.2732318832045
 30
0.0
 11
315.4247514802848
 21
872.0572318832046
 31
0.0
  0
LINE
  5
1482
330
2
100
AcDbEntity
  8
0
  6
HIDDEN
100
AcDbLine
 10
315.4247514802848
 20
872.0572318832046
 30
0.0
 11
334.3167514802848
 21
856.2732318832045
 31
0.0
  0
LINE
  5
1483
330
2
100
AcDbEntity
  8
0
  6
HIDDEN
100
AcDbLine
 10
354.0327514802848
 20
856.2732318832045
 30
0.0
 11
373.9247514802848
 21
872.0572318832046
 31
0.0
  0
LINE
  5
1484
330
2
100
AcDbEntity
  8
0
  6
HIDDEN
100
AcDbLine
 10
373.9247514802848
 20
872.0572318832046
 30
0.0
 11
393.8167514802848
 21
856.2732318832045
 31
0.0
  0
LINE
  5
1485
330
2
100
AcDbEntity
  8
0
  6
HIDDEN
100
AcDbLine
 10
413.5327514802848
 20
856.2732318832045
 30
0.0
 11
436.4247514802848
 21
872.0572318832046
 31
0.0
  0
LINE
  5
1486
330
2
100
AcDbEntity
  8
0
  6
HIDDEN
100
AcDbLine
 10
436.4247514802848
 20
872.0572318832046
 30
0.0
 11
459.3167514802848
 21
856.2732318832045
 31
0.0
  0
LINE
  5
1487
330
2
100
AcDbEntity
  8
0
  6
HIDDEN
100
AcDbLine
 10
479.0327514802848
 20
856.2732318832045
 30
0.0
 11
504.9247514802848
 21
872.0572318832046
 31
0.0
  0
LINE
  5
1488
330
2
100
AcDbEntity
  8
0
  6
HIDDEN
100
AcDbLine
 10
504.9247514802848
 20
872.0572318832046
 30
0.0
 11
530.8167514802849
 21
856.2732318832045
 31
0.0
  0
LINE
  5
1489
330
2
100
AcDbEntity
  8
0
  6
HIDDEN
100
AcDbLine
 10
550.5327514802848
 20
856.2732318832045
 30
0.0
 11
579.4247514802848
 21
872.0572318832046
 31
0.0
  0
LINE
  5
148A
330
2
100
AcDbEntity
  8
0
  6
HIDDEN
100
AcDbLine
 10
579.4247514802848
 20
872.0572318832046
 30
0.0
 11
608.3167514802849
 21
856.2732318832045
 31
0.0
  0
LINE
  5
148B
330
2
100
AcDbEntity
  8
0
  6
HIDDEN
100
AcDbLine
 10
550.5327514802848
 20
808.7732318832045
 30
0.0
 11
579.4247514802848
 21
830.5572318832046
 31
0.0
  0
LINE
  5
148C
330
2
100
AcDbEntity
  8
0
  6
HIDDEN
100
AcDbLine
 10
579.4247514802848
 20
830.5572318832046
 30
0.0
 11
608.3167514802849
 21
808.7732318832045
 31
0.0
  0
LINE
  5
148D
330
2
100
AcDbEntity
  8
0
  6
HIDDEN
100
AcDbLine
 10
479.0327514802848
 20
808.7732318832045
 30
0.0
 11
504.9247514802848
 21
830.5572318832046
 31
0.0
  0
LINE
  5
148E
330
2
100
AcDbEntity
  8
0
  6
HIDDEN
100
AcDbLine
 10
504.9247514802848
 20
830.5572318832046
 30
0.0
 11
530.8167514802849
 21
808.7732318832045
 31
0.0
  0
LINE
  5
148F
330
2
100
AcDbEntity
  8
0
  6
HIDDEN
100
AcDbLine
 10
413.5327514802848
 20
808.7732318832045
 30
0.0
 11
436.4247514802848
 21
830.5572318832046
 31
0.0
  0
LINE
  5
1490
330
2
100
AcDbEntity
  8
0
  6
HIDDEN
100
AcDbLine
 10
436.4247514802848
 20
830.5572318832046
 30
0.0
 11
459.3167514802848
 21
808.7732318832045
 31
0.0
  0
LINE
  5
1491
330
2
100
AcDbEntity
  8
0
  6
HIDDEN
100
AcDbLine
 10
354.0327514802848
 20
808.7732318832045
 30
0.0
 11
373.9247514802848
 21
830.5572318832046
 31
0.0
  0
LINE
  5
1492
330
2
100
AcDbEntity
  8
0
  6
HIDDEN
100
AcDbLine
 10
373.9247514802848
 20
830.5572318832046
 30
0.0
 11
393.8167514802848
 21
808.7732318832045
 31
0.0
  0
LINE
  5
1493
330
2
100
AcDbEntity
  8
0
  6
HIDDEN
100
AcDbLine
 10
296.5327514802848
 20
808.7732318832045
 30
0.0
 11
315.4247514802848
 21
830.5572318832046
 31
0.0
  0
LINE
  5
1494
330
2
100
AcDbEntity
  8
0
  6
HIDDEN
100
AcDbLine
 10
315.4247514802848
 20
830.5572318832046
 30
0.0
 11
334.3167514802848
 21
808.7732318832045
 31
0.0
  0
LINE
  5
1495
330
2
100
AcDbEntity
  8
0
  6
HIDDEN
100
AcDbLine
 10
296.5327514802848
 20
755.2732318832045
 30
0.0
 11
315.4247514802848
 21
783.0572318832046
 31
0.0
  0
LINE
  5
1496
330
2
100
AcDbEntity
  8
0
  6
HIDDEN
100
AcDbLine
 10
315.4247514802848
 20
783.0572318832046
 30
0.0
 11
334.3167514802848
 21
755.2732318832045
 31
0.0
  0
LINE
  5
1497
330
2
100
AcDbEntity
  8
0
  6
HIDDEN
100
AcDbLine
 10
354.0327514802848
 20
755.2732318832045
 30
0.0
 11
373.9247514802848
 21
783.0572318832046
 31
0.0
  0
LINE
  5
1498
330
2
100
AcDbEntity
  8
0
  6
HIDDEN
100
AcDbLine
 10
373.9247514802848
 20
783.0572318832046
 30
0.0
 11
393.8167514802848
 21
755.2732318832045
 31
0.0
  0
LINE
  5
1499
330
2
100
AcDbEntity
  8
0
  6
HIDDEN
100
AcDbLine
 10
413.5327514802848
 20
755.2732318832045
 30
0.0
 11
436.4247514802848
 21
783.0572318832046
 31
0.0
  0
LINE
  5
149A
330
2
100
AcDbEntity
  8
0
  6
HIDDEN
100
AcDbLine
 10
436.4247514802848
 20
783.0572318832046
 30
0.0
 11
459.3167514802848
 21
755.2732318832045
 31
0.0
  0
LINE
  5
149B
330
2
100
AcDbEntity
  8
0
  6
HIDDEN
100
AcDbLine
 10
479.0327514802848
 20
755.2732318832045
 30
0.0
 11
504.9247514802848
 21
783.0572318832046
 31
0.0
  0
LINE
  5
149C
330
2
100
AcDbEntity
  8
0
  6
HIDDEN
100
AcDbLine
 10
504.9247514802848
 20
783.0572318832046
 30
0.0
 11
530.8167514802849
 21
755.2732318832045
 31
0.0
  0
LINE
  5
149D
330
2
100
AcDbEntity
  8
0
  6
HIDDEN
100
AcDbLine
 10
550.5327514802848
 20
755.2732318832045
 30
0.0
 11
579.4247514802848
 21
783.0572318832046
 31
0.0
  0
LINE
  5
149E
330
2
100
AcDbEntity
  8
0
  6
HIDDEN
100
AcDbLine
 10
579.4247514802848
 20
783.0572318832046
 30
0.0
 11
608.3167514802849
 21
755.2732318832045
 31
0.0
  0
LINE
  5
149F
330
2
100
AcDbEntity
  8
0
  6
HIDDEN
100
AcDbLine
 10
550.5327514802848
 20
695.7732318832045
 30
0.0
 11
579.4247514802848
 21
729.5572318832046
 31
0.0
  0
LINE
  5
14A0
330
2
100
AcDbEntity
  8
0
  6
HIDDEN
100
AcDbLine
 10
579.4247514802848
 20
729.5572318832046
 30
0.0
 11
608.3167514802849
 21
695.7732318832045
 31
0.0
  0
LINE
  5
14A1
330
2
100
AcDbEntity
  8
0
  6
HIDDEN
100
AcDbLine
 10
479.0327514802848
 20
695.7732318832045
 30
0.0
 11
504.9247514802848
 21
729.5572318832046
 31
0.0
  0
LINE
  5
14A2
330
2
100
AcDbEntity
  8
0
  6
HIDDEN
100
AcDbLine
 10
504.9247514802848
 20
729.5572318832046
 30
0.0
 11
530.8167514802849
 21
695.7732318832045
 31
0.0
  0
LINE
  5
14A3
330
2
100
AcDbEntity
  8
0
  6
HIDDEN
100
AcDbLine
 10
413.5327514802848
 20
695.7732318832045
 30
0.0
 11
436.4247514802848
 21
729.5572318832046
 31
0.0
  0
LINE
  5
14A4
330
2
100
AcDbEntity
  8
0
  6
HIDDEN
100
AcDbLine
 10
436.4247514802848
 20
729.5572318832046
 30
0.0
 11
459.3167514802848
 21
695.7732318832045
 31
0.0
  0
LINE
  5
14A5
330
2
100
AcDbEntity
  8
0
  6
HIDDEN
100
AcDbLine
 10
354.0327514802848
 20
695.7732318832045
 30
0.0
 11
373.9247514802848
 21
729.5572318832046
 31
0.0
  0
LINE
  5
14A6
330
2
100
AcDbEntity
  8
0
  6
HIDDEN
100
AcDbLine
 10
373.9247514802848
 20
729.5572318832046
 30
0.0
 11
393.8167514802848
 21
695.7732318832045
 31
0.0
  0
LINE
  5
14A7
330
2
100
AcDbEntity
  8
0
  6
HIDDEN
100
AcDbLine
 10
296.5327514802848
 20
695.7732318832045
 30
0.0
 11
315.4247514802848
 21
729.5572318832046
 31
0.0
  0
LINE
  5
14A8
330
2
100
AcDbEntity
  8
0
  6
HIDDEN
100
AcDbLine
 10
315.4247514802848
 20
729.5572318832046
 30
0.0
 11
334.3167514802848
 21
695.7732318832045
 31
0.0
  0
LINE
  5
14A9
330
2
100
AcDbEntity
  8
0
  6
HIDDEN
100
AcDbLine
 10
243.0327514802848
 20
695.7732318832045
 30
0.0
 11
259.9247514802848
 21
729.5572318832046
 31
0.0
  0
LINE
  5
14AA
330
2
100
AcDbEntity
  8
0
  6
HIDDEN
100
AcDbLine
 10
259.9247514802848
 20
729.5572318832046
 30
0.0
 11
276.8167514802848
 21
695.7732318832045
 31
0.0
  0
LINE
  5
14AB
330
2
100
AcDbEntity
  8
0
  6
HIDDEN
100
AcDbLine
 10
195.5327514802848
 20
695.7732318832045
 30
0.0
 11
209.4247514802848
 21
729.5572318832046
 31
0.0
  0
LINE
  5
14AC
330
2
100
AcDbEntity
  8
0
  6
HIDDEN
100
AcDbLine
 10
209.4247514802848
 20
729.5572318832046
 30
0.0
 11
223.3167514802848
 21
695.7732318832045
 31
0.0
  0
LINE
  5
14AD
330
2
100
AcDbEntity
  8
0
  6
HIDDEN
100
AcDbLine
 10
154.0327514802848
 20
695.7732318832045
 30
0.0
 11
164.9247514802848
 21
729.5572318832046
 31
0.0
  0
LINE
  5
14AE
330
2
100
AcDbEntity
  8
0
  6
HIDDEN
100
AcDbLine
 10
164.9247514802848
 20
729.5572318832046
 30
0.0
 11
175.8167514802848
 21
695.7732318832045
 31
0.0
  0
LINE
  5
14AF
330
2
100
AcDbEntity
  8
0
  6
HIDDEN
100
AcDbLine
 10
154.0327514802848
 20
632.2732318832045
 30
0.0
 11
164.9247514802848
 21
670.0572318832046
 31
0.0
  0
LINE
  5
14B0
330
2
100
AcDbEntity
  8
0
  6
HIDDEN
100
AcDbLine
 10
164.9247514802848
 20
670.0572318832046
 30
0.0
 11
175.8167514802848
 21
632.2732318832045
 31
0.0
  0
LINE
  5
14B1
330
2
100
AcDbEntity
  8
0
  6
HIDDEN
100
AcDbLine
 10
195.5327514802848
 20
632.2732318832045
 30
0.0
 11
209.4247514802848
 21
670.0572318832046
 31
0.0
  0
LINE
  5
14B2
330
2
100
AcDbEntity
  8
0
  6
HIDDEN
100
AcDbLine
 10
209.4247514802848
 20
670.0572318832046
 30
0.0
 11
223.3167514802848
 21
632.2732318832045
 31
0.0
  0
LINE
  5
14B3
330
2
100
AcDbEntity
  8
0
  6
HIDDEN
100
AcDbLine
 10
243.0327514802848
 20
632.2732318832045
 30
0.0
 11
259.9247514802848
 21
670.0572318832046
 31
0.0
  0
LINE
  5
14B4
330
2
100
AcDbEntity
  8
0
  6
HIDDEN
100
AcDbLine
 10
259.9247514802848
 20
670.0572318832046
 30
0.0
 11
276.8167514802848
 21
632.2732318832045
 31
0.0
  0
LINE
  5
14B5
330
2
100
AcDbEntity
  8
0
  6
HIDDEN
100
AcDbLine
 10
296.5327514802848
 20
632.2732318832045
 30
0.0
 11
315.4247514802848
 21
670.0572318832046
 31
0.0
  0
LINE
  5
14B6
330
2
100
AcDbEntity
  8
0
  6
HIDDEN
100
AcDbLine
 10
315.4247514802848
 20
670.0572318832046
 30
0.0
 11
334.3167514802848
 21
632.2732318832045
 31
0.0
  0
LINE
  5
14B7
330
2
100
AcDbEntity
  8
0
  6
HIDDEN
100
AcDbLine
 10
354.0327514802848
 20
632.2732318832045
 30
0.0
 11
373.9247514802848
 21
670.0572318832046
 31
0.0
  0
LINE
  5
14B8
330
2
100
AcDbEntity
  8
0
  6
HIDDEN
100
AcDbLine
 10
373.9247514802848
 20
670.0572318832046
 30
0.0
 11
393.8167514802848
 21
632.2732318832045
 31
0.0
  0
LINE
  5
14B9
330
2
100
AcDbEntity
  8
0
  6
HIDDEN
100
AcDbLine
 10
354.0327514802848
 20
566.7732318832045
 30
0.0
 11
373.9247514802848
 21
606.5572318832046
 31
0.0
  0
LINE
  5
14BA
330
2
100
AcDbEntity
  8
0
  6
HIDDEN
100
AcDbLine
 10
373.9247514802848
 20
606.5572318832046
 30
0.0
 11
393.8167514802848
 21
566.7732318832045
 31
0.0
  0
LINE
  5
14BB
330
2
100
AcDbEntity
  8
0
  6
HIDDEN
100
AcDbLine
 10
296.5327514802848
 20
566.7732318832045
 30
0.0
 11
315.4247514802848
 21
606.5572318832046
 31
0.0
  0
LINE
  5
14BC
330
2
100
AcDbEntity
  8
0
  6
HIDDEN
100
AcDbLine
 10
315.4247514802848
 20
606.5572318832046
 30
0.0
 11
334.3167514802848
 21
566.7732318832045
 31
0.0
  0
LINE
  5
14BD
330
2
100
AcDbEntity
  8
0
  6
HIDDEN
100
AcDbLine
 10
243.0327514802848
 20
566.7732318832045
 30
0.0
 11
259.9247514802848
 21
606.5572318832046
 31
0.0
  0
LINE
  5
14BE
330
2
100
AcDbEntity
  8
0
  6
HIDDEN
100
AcDbLine
 10
259.9247514802848
 20
606.5572318832046
 30
0.0
 11
276.8167514802848
 21
566.7732318832045
 31
0.0
  0
LINE
  5
14BF
330
2
100
AcDbEntity
  8
0
  6
HIDDEN
100
AcDbLine
 10
195.5327514802848
 20
566.7732318832045
 30
0.0
 11
209.4247514802848
 21
606.5572318832046
 31
0.0
  0
LINE
  5
14C0
330
2
100
AcDbEntity
  8
0
  6
HIDDEN
100
AcDbLine
 10
209.4247514802848
 20
606.5572318832046
 30
0.0
 11
223.3167514802848
 21
566.7732318832045
 31
0.0
  0
LINE
  5
14C1
330
2
100
AcDbEntity
  8
0
  6
HIDDEN
100
AcDbLine
 10
154.0327514802848
 20
566.7732318832045
 30
0.0
 11
164.9247514802848
 21
606.5572318832046
 31
0.0
  0
LINE
  5
14C2
330
2
100
AcDbEntity
  8
0
  6
HIDDEN
100
AcDbLine
 10
164.9247514802848
 20
606.5572318832046
 30
0.0
 11
175.8167514802848
 21
566.7732318832045
 31
0.0
  0
LINE
  5
14C3
330
2
100
AcDbEntity
  8
0
  6
HIDDEN
100
AcDbLine
 10
243.0327514802848
 20
808.7732318832045
 30
0.0
 11
259.9247514802848
 21
830.5572318832046
 31
0.0
  0
LINE
  5
14C4
330
2
100
AcDbEntity
  8
0
  6
HIDDEN
100
AcDbLine
 10
259.9247514802848
 20
830.5572318832046
 30
0.0
 11
276.8167514802848
 21
808.7732318832045
 31
0.0
  0
LINE
  5
14C5
330
2
100
AcDbEntity
  8
0
  6
HIDDEN
100
AcDbLine
 10
243.0327514802848
 20
755.2732318832045
 30
0.0
 11
259.9247514802848
 21
783.0572318832046
 31
0.0
  0
LINE
  5
14C6
330
2
100
AcDbEntity
  8
0
  6
HIDDEN
100
AcDbLine
 10
259.9247514802848
 20
783.0572318832046
 30
0.0
 11
276.8167514802848
 21
755.2732318832045
 31
0.0
  0
LINE
  5
14C7
330
2
100
AcDbEntity
  8
0
  6
HIDDEN
100
AcDbLine
 10
195.5327514802848
 20
755.2732318832045
 30
0.0
 11
209.4247514802848
 21
783.0572318832046
 31
0.0
  0
LINE
  5
14C8
330
2
100
AcDbEntity
  8
0
  6
HIDDEN
100
AcDbLine
 10
209.4247514802848
 20
783.0572318832046
 30
0.0
 11
223.3167514802848
 21
755.2732318832045
 31
0.0
  0
LINE
  5
14C9
330
2
100
AcDbEntity
  8
0
  6
HIDDEN
100
AcDbLine
 10
154.0327514802848
 20
755.2732318832045
 30
0.0
 11
164.9247514802848
 21
783.0572318832046
 31
0.0
  0
LINE
  5
14CA
330
2
100
AcDbEntity
  8
0
  6
HIDDEN
100
AcDbLine
 10
164.9247514802848
 20
783.0572318832046
 30
0.0
 11
175.8167514802848
 21
755.2732318832045
 31
0.0
  0
LINE
  5
14CB
330
2
100
AcDbEntity
  8
0
  6
HIDDEN
100
AcDbLine
 10
154.0327514802848
 20
808.7732318832045
 30
0.0
 11
164.9247514802848
 21
830.5572318832046
 31
0.0
  0
LINE
  5
14CC
330
2
100
AcDbEntity
  8
0
  6
HIDDEN
100
AcDbLine
 10
164.9247514802848
 20
830.5572318832046
 30
0.0
 11
175.8167514802848
 21
808.7732318832045
 31
0.0
  0
LINE
  5
14CD
330
2
100
AcDbEntity
  8
0
  6
HIDDEN
100
AcDbLine
 10
195.5327514802848
 20
808.7732318832045
 30
0.0
 11
209.4247514802848
 21
830.5572318832046
 31
0.0
  0
LINE
  5
14CE
330
2
100
AcDbEntity
  8
0
  6
HIDDEN
100
AcDbLine
 10
209.4247514802848
 20
830.5572318832046
 30
0.0
 11
223.3167514802848
 21
808.7732318832045
 31
0.0
  0
LINE
  5
14CF
330
2
100
AcDbEntity
  8
0
100
AcDbLine
 10
166.0717514802848
 20
395.9136016869764
 30
0.0
 11
166.0717514802848
 21
378.8276016869764
 31
0.0
  0
LINE
  5
14D0
330
2
100
AcDbEntity
  8
0
100
AcDbLine
 10
156.3817514802848
 20
387.3706016869764
 30
0.0
 11
185.4677514802848
 21
387.3706016869764
 31
0.0
  0
LWPOLYLINE
  5
14D1
330
2
100
AcDbEntity
  8
0
100
AcDbPolyline
 90
        4
 70
     1
 43
0.0
 10
153.1747514802848
 20
375.6206016869764
 10
188.6747514802848
 20
375.6206016869764
 10
188.6747514802848
 20
399.1206016869764
 10
153.1747514802848
 20
399.1206016869764
  0
LWPOLYLINE
  5
14D2
330
2
100
AcDbEntity
  8
0
100
AcDbPolyline
 90
        4
 70
     1
 43
0.0
 10
156.3817514802848
 20
378.8276016869764
 10
185.4677514802848
 20
378.8276016869764
 10
185.4677514802848
 20
395.9136016869764
 10
156.3817514802848
 20
395.9136016869764
  0
LWPOLYLINE
  5
14D3
330
2
100
AcDbEntity
  8
0
100
AcDbPolyline
 90
        4
 70
     1
 43
0.0
 10
154.0327514802848
 20
376.4786016869764
 10
187.8167514802848
 20
376.4786016869764
 10
187.8167514802848
 20
398.2626016869765
 10
154.0327514802848
 20
398.2626016869765
  0
LINE
  5
14D4
330
2
100
AcDbEntity
  8
0
100
AcDbLine
 10
175.7777514802848
 20
395.9136016869764
 30
0.0
 11
175.7777514802848
 21
378.8276016869764
 31
0.0
  0
LINE
  5
14D5
330
2
100
AcDbEntity
  8
0
  6
HIDDEN
100
AcDbLine
 10
154.0327514802848
 20
376.4786016869764
 30
0.0
 11
170.9247514802848
 21
398.2626016869765
 31
0.0
  0
LINE
  5
14D6
330
2
100
AcDbEntity
  8
0
  6
HIDDEN
100
AcDbLine
 10
170.9247514802848
 20
398.2626016869765
 30
0.0
 11
187.8167514802848
 21
376.4786016869764
 31
0.0
  0
LWPOLYLINE
  5
14D7
330
2
100
AcDbEntity
  8
0
100
AcDbPolyline
 90
        4
 70
     1
 43
0.0
 10
153.1747514802848
 20
399.6206016869764
 10
188.6747514802848
 20
399.6206016869764
 10
188.6747514802848
 20
447.1206016869764
 10
153.1747514802848
 20
447.1206016869764
  0
LWPOLYLINE
  5
14D8
330
2
100
AcDbEntity
  8
0
100
AcDbPolyline
 90
        4
 70
     1
 43
0.0
 10
156.3817514802848
 20
402.8276016869764
 10
185.4677514802848
 20
402.8276016869764
 10
185.4677514802848
 20
443.9136016869764
 10
156.3817514802848
 20
443.9136016869764
  0
LWPOLYLINE
  5
14D9
330
2
100
AcDbEntity
  8
0
100
AcDbPolyline
 90
        4
 70
     1
 43
0.0
 10
154.0327514802848
 20
400.4786016869764
 10
187.8167514802848
 20
400.4786016869764
 10
187.8167514802848
 20
446.2626016869765
 10
154.0327514802848
 20
446.2626016869765
  0
LINE
  5
14DA
330
2
100
AcDbEntity
  8
0
100
AcDbLine
 10
153.1747514802848
 20
399.6206016869764
 30
0.0
 11
153.1747514802848
 21
399.1206016869764
 31
0.0
  0
LINE
  5
14DB
330
2
100
AcDbEntity
  8
0
100
AcDbLine
 10
188.6747514802848
 20
399.6206016869764
 30
0.0
 11
188.6747514802848
 21
399.1206016869764
 31
0.0
  0
LINE
  5
14DC
330
2
100
AcDbEntity
  8
0
100
AcDbLine
 10
185.4677514802848
 20
423.3706016869764
 30
0.0
 11
156.3817514802848
 21
423.3706016869764
 31
0.0
  0
LINE
  5
14DD
330
2
100
AcDbEntity
  8
0
100
AcDbLine
 10
185.4677514802848
 20
433.6421016869764
 30
0.0
 11
156.3817514802848
 21
433.6421016869764
 31
0.0
  0
LINE
  5
14DE
330
2
100
AcDbEntity
  8
0
100
AcDbLine
 10
185.4677514802848
 20
413.0991016869764
 30
0.0
 11
156.3817514802848
 21
413.0991016869764
 31
0.0
  0
LINE
  5
14DF
330
2
100
AcDbEntity
  8
0
100
AcDbLine
 10
166.0717514802848
 20
443.9136016869764
 30
0.0
 11
166.0717514802848
 21
402.8276016869764
 31
0.0
  0
LINE
  5
14E0
330
2
100
AcDbEntity
  8
0
100
AcDbLine
 10
175.7777514802848
 20
443.9136016869764
 30
0.0
 11
175.7777514802848
 21
402.8276016869764
 31
0.0
  0
LINE
  5
14E1
330
2
100
AcDbEntity
  8
0
100
AcDbLine
 10
221.5717514802848
 20
395.9136016869764
 30
0.0
 11
221.5717514802848
 21
378.8276016869764
 31
0.0
  0
LINE
  5
14E2
330
2
100
AcDbEntity
  8
0
100
AcDbLine
 10
209.8817514802848
 20
387.3706016869764
 30
0.0
 11
244.9677514802848
 21
387.3706016869764
 31
0.0
  0
LWPOLYLINE
  5
14E3
330
2
100
AcDbEntity
  8
0
100
AcDbPolyline
 90
        4
 70
     1
 43
0.0
 10
206.6747514802848
 20
375.6206016869764
 10
248.1747514802848
 20
375.6206016869764
 10
248.1747514802848
 20
399.1206016869764
 10
206.6747514802848
 20
399.1206016869764
  0
LWPOLYLINE
  5
14E4
330
2
100
AcDbEntity
  8
0
100
AcDbPolyline
 90
        4
 70
     1
 43
0.0
 10
209.8817514802848
 20
378.8276016869764
 10
244.9677514802848
 20
378.8276016869764
 10
244.9677514802848
 20
395.9136016869764
 10
209.8817514802848
 20
395.9136016869764
  0
LWPOLYLINE
  5
14E5
330
2
100
AcDbEntity
  8
0
100
AcDbPolyline
 90
        4
 70
     1
 43
0.0
 10
207.5327514802848
 20
376.4786016869764
 10
247.3167514802848
 20
376.4786016869764
 10
247.3167514802848
 20
398.2626016869765
 10
207.5327514802848
 20
398.2626016869765
  0
LINE
  5
14E6
330
2
100
AcDbEntity
  8
0
100
AcDbLine
 10
233.2777514802848
 20
395.9136016869764
 30
0.0
 11
233.2777514802848
 21
378.8276016869764
 31
0.0
  0
LINE
  5
14E7
330
2
100
AcDbEntity
  8
0
  6
HIDDEN
100
AcDbLine
 10
207.5327514802848
 20
376.4786016869764
 30
0.0
 11
227.4247514802848
 21
398.2626016869765
 31
0.0
  0
LINE
  5
14E8
330
2
100
AcDbEntity
  8
0
  6
HIDDEN
100
AcDbLine
 10
227.4247514802848
 20
398.2626016869765
 30
0.0
 11
247.3167514802848
 21
376.4786016869764
 31
0.0
  0
LWPOLYLINE
  5
14E9
330
2
100
AcDbEntity
  8
0
100
AcDbPolyline
 90
        4
 70
     1
 43
0.0
 10
206.6747514802848
 20
399.6206016869764
 10
248.1747514802848
 20
399.6206016869764
 10
248.1747514802848
 20
447.1206016869764
 10
206.6747514802848
 20
447.1206016869764
  0
LWPOLYLINE
  5
14EA
330
2
100
AcDbEntity
  8
0
100
AcDbPolyline
 90
        4
 70
     1
 43
0.0
 10
209.8817514802848
 20
402.8276016869764
 10
244.9677514802848
 20
402.8276016869764
 10
244.9677514802848
 20
443.9136016869764
 10
209.8817514802848
 20
443.9136016869764
  0
LWPOLYLINE
  5
14EB
330
2
100
AcDbEntity
  8
0
100
AcDbPolyline
 90
        4
 70
     1
 43
0.0
 10
207.5327514802848
 20
400.4786016869764
 10
247.3167514802848
 20
400.4786016869764
 10
247.3167514802848
 20
446.2626016869765
 10
207.5327514802848
 20
446.2626016869765
  0
LINE
  5
14EC
330
2
100
AcDbEntity
  8
0
100
AcDbLine
 10
206.6747514802848
 20
399.6206016869764
 30
0.0
 11
206.6747514802848
 21
399.1206016869764
 31
0.0
  0
LINE
  5
14ED
330
2
100
AcDbEntity
  8
0
100
AcDbLine
 10
248.1747514802848
 20
399.6206016869764
 30
0.0
 11
248.1747514802848
 21
399.1206016869764
 31
0.0
  0
LINE
  5
14EE
330
2
100
AcDbEntity
  8
0
100
AcDbLine
 10
244.9677514802848
 20
423.3706016869764
 30
0.0
 11
209.8817514802848
 21
423.3706016869764
 31
0.0
  0
LINE
  5
14EF
330
2
100
AcDbEntity
  8
0
100
AcDbLine
 10
244.9677514802848
 20
433.6421016869764
 30
0.0
 11
209.8817514802848
 21
433.6421016869764
 31
0.0
  0
LINE
  5
14F0
330
2
100
AcDbEntity
  8
0
100
AcDbLine
 10
244.9677514802848
 20
413.0991016869764
 30
0.0
 11
209.8817514802848
 21
413.0991016869764
 31
0.0
  0
LINE
  5
14F1
330
2
100
AcDbEntity
  8
0
100
AcDbLine
 10
221.5717514802848
 20
443.9136016869764
 30
0.0
 11
221.5717514802848
 21
402.8276016869764
 31
0.0
  0
LINE
  5
14F2
330
2
100
AcDbEntity
  8
0
100
AcDbLine
 10
233.2777514802848
 20
443.9136016869764
 30
0.0
 11
233.2777514802848
 21
402.8276016869764
 31
0.0
  0
LINE
  5
14F3
330
2
100
AcDbEntity
  8
0
100
AcDbLine
 10
279.6532514802848
 20
395.9136016869764
 30
0.0
 11
279.6532514802848
 21
378.8276016869764
 31
0.0
  0
LINE
  5
14F4
330
2
100
AcDbEntity
  8
0
100
AcDbLine
 10
269.3817514802848
 20
387.3706016869764
 30
0.0
 11
310.4677514802848
 21
387.3706016869764
 31
0.0
  0
LWPOLYLINE
  5
14F5
330
2
100
AcDbEntity
  8
0
100
AcDbPolyline
 90
        4
 70
     1
 43
0.0
 10
266.1747514802848
 20
375.6206016869764
 10
313.6747514802848
 20
375.6206016869764
 10
313.6747514802848
 20
399.1206016869764
 10
266.1747514802848
 20
399.1206016869764
  0
LWPOLYLINE
  5
14F6
330
2
100
AcDbEntity
  8
0
100
AcDbPolyline
 90
        4
 70
     1
 43
0.0
 10
269.3817514802848
 20
378.8276016869764
 10
310.4677514802848
 20
378.8276016869764
 10
310.4677514802848
 20
395.9136016869764
 10
269.3817514802848
 20
395.9136016869764
  0
LWPOLYLINE
  5
14F7
330
2
100
AcDbEntity
  8
0
100
AcDbPolyline
 90
        4
 70
     1
 43
0.0
 10
267.0327514802848
 20
376.4786016869764
 10
312.8167514802848
 20
376.4786016869764
 10
312.8167514802848
 20
398.2626016869765
 10
267.0327514802848
 20
398.2626016869765
  0
LINE
  5
14F8
330
2
100
AcDbEntity
  8
0
100
AcDbLine
 10
289.9247514802848
 20
395.9136016869764
 30
0.0
 11
289.9247514802848
 21
378.8276016869764
 31
0.0
  0
LINE
  5
14F9
330
2
100
AcDbEntity
  8
0
  6
HIDDEN
100
AcDbLine
 10
267.0327514802848
 20
376.4786016869764
 30
0.0
 11
289.9247514802848
 21
398.2626016869765
 31
0.0
  0
LINE
  5
14FA
330
2
100
AcDbEntity
  8
0
  6
HIDDEN
100
AcDbLine
 10
289.9247514802848
 20
398.2626016869765
 30
0.0
 11
312.8167514802848
 21
376.4786016869764
 31
0.0
  0
LWPOLYLINE
  5
14FB
330
2
100
AcDbEntity
  8
0
100
AcDbPolyline
 90
        4
 70
     1
 43
0.0
 10
266.1747514802848
 20
399.6206016869764
 10
313.6747514802848
 20
399.6206016869764
 10
313.6747514802848
 20
447.1206016869764
 10
266.1747514802848
 20
447.1206016869764
  0
LWPOLYLINE
  5
14FC
330
2
100
AcDbEntity
  8
0
100
AcDbPolyline
 90
        4
 70
     1
 43
0.0
 10
269.3817514802848
 20
402.8276016869764
 10
310.4677514802848
 20
402.8276016869764
 10
310.4677514802848
 20
443.9136016869764
 10
269.3817514802848
 20
443.9136016869764
  0
LWPOLYLINE
  5
14FD
330
2
100
AcDbEntity
  8
0
100
AcDbPolyline
 90
        4
 70
     1
 43
0.0
 10
267.0327514802848
 20
400.4786016869764
 10
312.8167514802848
 20
400.4786016869764
 10
312.8167514802848
 20
446.2626016869765
 10
267.0327514802848
 20
446.2626016869765
  0
LINE
  5
14FE
330
2
100
AcDbEntity
  8
0
100
AcDbLine
 10
266.1747514802848
 20
399.6206016869764
 30
0.0
 11
266.1747514802848
 21
399.1206016869764
 31
0.0
  0
LINE
  5
14FF
330
2
100
AcDbEntity
  8
0
100
AcDbLine
 10
313.6747514802848
 20
399.6206016869764
 30
0.0
 11
313.6747514802848
 21
399.1206016869764
 31
0.0
  0
LINE
  5
1500
330
2
100
AcDbEntity
  8
0
100
AcDbLine
 10
310.4677514802848
 20
423.3706016869764
 30
0.0
 11
269.3817514802848
 21
423.3706016869764
 31
0.0
  0
LINE
  5
1501
330
2
100
AcDbEntity
  8
0
100
AcDbLine
 10
310.4677514802848
 20
433.6421016869764
 30
0.0
 11
269.3817514802848
 21
433.6421016869764
 31
0.0
  0
LINE
  5
1502
330
2
100
AcDbEntity
  8
0
100
AcDbLine
 10
310.4677514802848
 20
413.0991016869764
 30
0.0
 11
269.3817514802848
 21
413.0991016869764
 31
0.0
  0
LINE
  5
1503
330
2
100
AcDbEntity
  8
0
100
AcDbLine
 10
279.6532514802848
 20
443.9136016869764
 30
0.0
 11
279.6532514802848
 21
402.8276016869764
 31
0.0
  0
LINE
  5
1504
330
2
100
AcDbEntity
  8
0
100
AcDbLine
 10
289.9247514802848
 20
443.9136016869764
 30
0.0
 11
289.9247514802848
 21
402.8276016869764
 31
0.0
  0
LINE
  5
1505
330
2
100
AcDbEntity
  8
0
100
AcDbLine
 10
300.1962514802848
 20
395.9136016869764
 30
0.0
 11
300.1962514802848
 21
378.8276016869764
 31
0.0
  0
LINE
  5
1506
330
2
100
AcDbEntity
  8
0
100
AcDbLine
 10
300.1962514802848
 20
443.9136016869764
 30
0.0
 11
300.1962514802848
 21
402.8276016869764
 31
0.0
  0
LINE
  5
1507
330
2
100
AcDbEntity
  8
0
100
AcDbLine
 10
348.1532514802848
 20
395.9136016869764
 30
0.0
 11
348.1532514802848
 21
378.8276016869764
 31
0.0
  0
LINE
  5
1508
330
2
100
AcDbEntity
  8
0
100
AcDbLine
 10
334.8817514802848
 20
387.3706016869764
 30
0.0
 11
387.9677514802848
 21
387.3706016869764
 31
0.0
  0
LWPOLYLINE
  5
1509
330
2
100
AcDbEntity
  8
0
100
AcDbPolyline
 90
        4
 70
     1
 43
0.0
 10
331.6747514802848
 20
375.6206016869764
 10
391.1747514802848
 20
375.6206016869764
 10
391.1747514802848
 20
399.1206016869764
 10
331.6747514802848
 20
399.1206016869764
  0
LWPOLYLINE
  5
150A
330
2
100
AcDbEntity
  8
0
100
AcDbPolyline
 90
        4
 70
     1
 43
0.0
 10
334.8817514802848
 20
378.8276016869764
 10
387.9677514802848
 20
378.8276016869764
 10
387.9677514802848
 20
395.9136016869764
 10
334.8817514802848
 20
395.9136016869764
  0
LWPOLYLINE
  5
150B
330
2
100
AcDbEntity
  8
0
100
AcDbPolyline
 90
        4
 70
     1
 43
0.0
 10
332.5327514802848
 20
376.4786016869764
 10
390.3167514802848
 20
376.4786016869764
 10
390.3167514802848
 20
398.2626016869765
 10
332.5327514802848
 20
398.2626016869765
  0
LINE
  5
150C
330
2
100
AcDbEntity
  8
0
100
AcDbLine
 10
361.4247514802848
 20
395.9136016869764
 30
0.0
 11
361.4247514802848
 21
378.8276016869764
 31
0.0
  0
LINE
  5
150D
330
2
100
AcDbEntity
  8
0
  6
HIDDEN
100
AcDbLine
 10
332.5327514802848
 20
376.4786016869764
 30
0.0
 11
361.4247514802848
 21
398.2626016869765
 31
0.0
  0
LINE
  5
150E
330
2
100
AcDbEntity
  8
0
  6
HIDDEN
100
AcDbLine
 10
361.4247514802848
 20
398.2626016869765
 30
0.0
 11
390.3167514802848
 21
376.4786016869764
 31
0.0
  0
LWPOLYLINE
  5
150F
330
2
100
AcDbEntity
  8
0
100
AcDbPolyline
 90
        4
 70
     1
 43
0.0
 10
331.6747514802848
 20
399.6206016869764
 10
391.1747514802848
 20
399.6206016869764
 10
391.1747514802848
 20
447.1206016869764
 10
331.6747514802848
 20
447.1206016869764
  0
LWPOLYLINE
  5
1510
330
2
100
AcDbEntity
  8
0
100
AcDbPolyline
 90
        4
 70
     1
 43
0.0
 10
334.8817514802848
 20
402.8276016869764
 10
387.9677514802848
 20
402.8276016869764
 10
387.9677514802848
 20
443.9136016869764
 10
334.8817514802848
 20
443.9136016869764
  0
LWPOLYLINE
  5
1511
330
2
100
AcDbEntity
  8
0
100
AcDbPolyline
 90
        4
 70
     1
 43
0.0
 10
332.5327514802848
 20
400.4786016869764
 10
390.3167514802848
 20
400.4786016869764
 10
390.3167514802848
 20
446.2626016869765
 10
332.5327514802848
 20
446.2626016869765
  0
LINE
  5
1512
330
2
100
AcDbEntity
  8
0
100
AcDbLine
 10
331.6747514802848
 20
399.6206016869764
 30
0.0
 11
331.6747514802848
 21
399.1206016869764
 31
0.0
  0
LINE
  5
1513
330
2
100
AcDbEntity
  8
0
100
AcDbLine
 10
391.1747514802848
 20
399.6206016869764
 30
0.0
 11
391.1747514802848
 21
399.1206016869764
 31
0.0
  0
LINE
  5
1514
330
2
100
AcDbEntity
  8
0
100
AcDbLine
 10
387.9677514802848
 20
423.3706016869764
 30
0.0
 11
334.8817514802848
 21
423.3706016869764
 31
0.0
  0
LINE
  5
1515
330
2
100
AcDbEntity
  8
0
100
AcDbLine
 10
387.9677514802848
 20
433.6421016869764
 30
0.0
 11
334.8817514802848
 21
433.6421016869764
 31
0.0
  0
LINE
  5
1516
330
2
100
AcDbEntity
  8
0
100
AcDbLine
 10
387.9677514802848
 20
413.0991016869764
 30
0.0
 11
334.8817514802848
 21
413.0991016869764
 31
0.0
  0
LINE
  5
1517
330
2
100
AcDbEntity
  8
0
100
AcDbLine
 10
348.1532514802848
 20
443.9136016869764
 30
0.0
 11
348.1532514802848
 21
402.8276016869764
 31
0.0
  0
LINE
  5
1518
330
2
100
AcDbEntity
  8
0
100
AcDbLine
 10
361.4247514802848
 20
443.9136016869764
 30
0.0
 11
361.4247514802848
 21
402.8276016869764
 31
0.0
  0
LINE
  5
1519
330
2
100
AcDbEntity
  8
0
100
AcDbLine
 10
374.6962514802848
 20
395.9136016869764
 30
0.0
 11
374.6962514802848
 21
378.8276016869764
 31
0.0
  0
LINE
  5
151A
330
2
100
AcDbEntity
  8
0
100
AcDbLine
 10
374.6962514802848
 20
443.9136016869764
 30
0.0
 11
374.6962514802848
 21
402.8276016869764
 31
0.0
  0
LINE
  5
151B
330
2
100
AcDbEntity
  8
0
100
AcDbLine
 10
166.0717514802848
 20
294.4136016869764
 30
0.0
 11
166.0717514802848
 21
277.3276016869764
 31
0.0
  0
LINE
  5
151C
330
2
100
AcDbEntity
  8
0
100
AcDbLine
 10
156.3817514802848
 20
285.8706016869764
 30
0.0
 11
185.4677514802848
 21
285.8706016869764
 31
0.0
  0
LWPOLYLINE
  5
151D
330
2
100
AcDbEntity
  8
0
100
AcDbPolyline
 90
        4
 70
     1
 43
0.0
 10
153.1747514802848
 20
274.1206016869764
 10
188.6747514802848
 20
274.1206016869764
 10
188.6747514802848
 20
297.6206016869764
 10
153.1747514802848
 20
297.6206016869764
  0
LWPOLYLINE
  5
151E
330
2
100
AcDbEntity
  8
0
100
AcDbPolyline
 90
        4
 70
     1
 43
0.0
 10
156.3817514802848
 20
277.3276016869764
 10
185.4677514802848
 20
277.3276016869764
 10
185.4677514802848
 20
294.4136016869764
 10
156.3817514802848
 20
294.4136016869764
  0
LWPOLYLINE
  5
151F
330
2
100
AcDbEntity
  8
0
100
AcDbPolyline
 90
        4
 70
     1
 43
0.0
 10
154.0327514802848
 20
274.9786016869764
 10
187.8167514802848
 20
274.9786016869764
 10
187.8167514802848
 20
296.7626016869765
 10
154.0327514802848
 20
296.7626016869765
  0
LINE
  5
1520
330
2
100
AcDbEntity
  8
0
100
AcDbLine
 10
175.7777514802848
 20
294.4136016869764
 30
0.0
 11
175.7777514802848
 21
277.3276016869764
 31
0.0
  0
LINE
  5
1521
330
2
100
AcDbEntity
  8
0
  6
HIDDEN
100
AcDbLine
 10
154.0327514802848
 20
274.9786016869764
 30
0.0
 11
170.9247514802848
 21
296.7626016869765
 31
0.0
  0
LINE
  5
1522
330
2
100
AcDbEntity
  8
0
  6
HIDDEN
100
AcDbLine
 10
170.9247514802848
 20
296.7626016869765
 30
0.0
 11
187.8167514802848
 21
274.9786016869764
 31
0.0
  0
LWPOLYLINE
  5
1523
330
2
100
AcDbEntity
  8
0
100
AcDbPolyline
 90
        4
 70
     1
 43
0.0
 10
153.1747514802848
 20
298.1206016869764
 10
188.6747514802848
 20
298.1206016869764
 10
188.6747514802848
 20
357.6206016869764
 10
153.1747514802848
 20
357.6206016869764
  0
LWPOLYLINE
  5
1524
330
2
100
AcDbEntity
  8
0
100
AcDbPolyline
 90
        4
 70
     1
 43
0.0
 10
156.3817514802848
 20
301.3276016869764
 10
185.4677514802848
 20
301.3276016869764
 10
185.4677514802848
 20
354.4136016869764
 10
156.3817514802848
 20
354.4136016869764
  0
LWPOLYLINE
  5
1525
330
2
100
AcDbEntity
  8
0
100
AcDbPolyline
 90
        4
 70
     1
 43
0.0
 10
154.0327514802848
 20
298.9786016869764
 10
187.8167514802848
 20
298.9786016869764
 10
187.8167514802848
 20
356.7626016869765
 10
154.0327514802848
 20
356.7626016869765
  0
LINE
  5
1526
330
2
100
AcDbEntity
  8
0
100
AcDbLine
 10
153.1747514802848
 20
298.1206016869764
 30
0.0
 11
153.1747514802848
 21
297.6206016869764
 31
0.0
  0
LINE
  5
1527
330
2
100
AcDbEntity
  8
0
100
AcDbLine
 10
188.6747514802848
 20
298.1206016869764
 30
0.0
 11
188.6747514802848
 21
297.6206016869764
 31
0.0
  0
LINE
  5
1528
330
2
100
AcDbEntity
  8
0
100
AcDbLine
 10
185.4677514802848
 20
327.8706016869764
 30
0.0
 11
156.3817514802848
 21
327.8706016869764
 31
0.0
  0
LINE
  5
1529
330
2
100
AcDbEntity
  8
0
100
AcDbLine
 10
185.4677514802848
 20
341.1421016869764
 30
0.0
 11
156.3817514802848
 21
341.1421016869764
 31
0.0
  0
LINE
  5
152A
330
2
100
AcDbEntity
  8
0
100
AcDbLine
 10
185.4677514802848
 20
314.5991016869764
 30
0.0
 11
156.3817514802848
 21
314.5991016869764
 31
0.0
  0
LINE
  5
152B
330
2
100
AcDbEntity
  8
0
100
AcDbLine
 10
166.0717514802848
 20
354.4136016869764
 30
0.0
 11
166.0717514802848
 21
301.3276016869764
 31
0.0
  0
LINE
  5
152C
330
2
100
AcDbEntity
  8
0
100
AcDbLine
 10
175.7777514802848
 20
354.4136016869764
 30
0.0
 11
175.7777514802848
 21
301.3276016869764
 31
0.0
  0
LINE
  5
152D
330
2
100
AcDbEntity
  8
0
100
AcDbLine
 10
221.5717514802848
 20
294.4136016869764
 30
0.0
 11
221.5717514802848
 21
277.3276016869764
 31
0.0
  0
LINE
  5
152E
330
2
100
AcDbEntity
  8
0
100
AcDbLine
 10
209.8817514802848
 20
285.8706016869764
 30
0.0
 11
244.9677514802848
 21
285.8706016869764
 31
0.0
  0
LWPOLYLINE
  5
152F
330
2
100
AcDbEntity
  8
0
100
AcDbPolyline
 90
        4
 70
     1
 43
0.0
 10
206.6747514802848
 20
274.1206016869764
 10
248.1747514802848
 20
274.1206016869764
 10
248.1747514802848
 20
297.6206016869764
 10
206.6747514802848
 20
297.6206016869764
  0
LWPOLYLINE
  5
1530
330
2
100
AcDbEntity
  8
0
100
AcDbPolyline
 90
        4
 70
     1
 43
0.0
 10
209.8817514802848
 20
277.3276016869764
 10
244.9677514802848
 20
277.3276016869764
 10
244.9677514802848
 20
294.4136016869764
 10
209.8817514802848
 20
294.4136016869764
  0
LWPOLYLINE
  5
1531
330
2
100
AcDbEntity
  8
0
100
AcDbPolyline
 90
        4
 70
     1
 43
0.0
 10
207.5327514802848
 20
274.9786016869764
 10
247.3167514802848
 20
274.9786016869764
 10
247.3167514802848
 20
296.7626016869765
 10
207.5327514802848
 20
296.7626016869765
  0
LINE
  5
1532
330
2
100
AcDbEntity
  8
0
100
AcDbLine
 10
233.2777514802848
 20
294.4136016869764
 30
0.0
 11
233.2777514802848
 21
277.3276016869764
 31
0.0
  0
LINE
  5
1533
330
2
100
AcDbEntity
  8
0
  6
HIDDEN
100
AcDbLine
 10
207.5327514802848
 20
274.9786016869764
 30
0.0
 11
227.4247514802848
 21
296.7626016869765
 31
0.0
  0
LINE
  5
1534
330
2
100
AcDbEntity
  8
0
  6
HIDDEN
100
AcDbLine
 10
227.4247514802848
 20
296.7626016869765
 30
0.0
 11
247.3167514802848
 21
274.9786016869764
 31
0.0
  0
LWPOLYLINE
  5
1535
330
2
100
AcDbEntity
  8
0
100
AcDbPolyline
 90
        4
 70
     1
 43
0.0
 10
206.6747514802848
 20
298.1206016869764
 10
248.1747514802848
 20
298.1206016869764
 10
248.1747514802848
 20
357.6206016869764
 10
206.6747514802848
 20
357.6206016869764
  0
LWPOLYLINE
  5
1536
330
2
100
AcDbEntity
  8
0
100
AcDbPolyline
 90
        4
 70
     1
 43
0.0
 10
209.8817514802848
 20
301.3276016869764
 10
244.9677514802848
 20
301.3276016869764
 10
244.9677514802848
 20
354.4136016869764
 10
209.8817514802848
 20
354.4136016869764
  0
LWPOLYLINE
  5
1537
330
2
100
AcDbEntity
  8
0
100
AcDbPolyline
 90
        4
 70
     1
 43
0.0
 10
207.5327514802848
 20
298.9786016869764
 10
247.3167514802848
 20
298.9786016869764
 10
247.3167514802848
 20
356.7626016869765
 10
207.5327514802848
 20
356.7626016869765
  0
LINE
  5
1538
330
2
100
AcDbEntity
  8
0
100
AcDbLine
 10
206.6747514802848
 20
298.1206016869764
 30
0.0
 11
206.6747514802848
 21
297.6206016869764
 31
0.0
  0
LINE
  5
1539
330
2
100
AcDbEntity
  8
0
100
AcDbLine
 10
248.1747514802848
 20
298.1206016869764
 30
0.0
 11
248.1747514802848
 21
297.6206016869764
 31
0.0
  0
LINE
  5
153A
330
2
100
AcDbEntity
  8
0
100
AcDbLine
 10
244.9677514802848
 20
327.8706016869764
 30
0.0
 11
209.8817514802848
 21
327.8706016869764
 31
0.0
  0
LINE
  5
153B
330
2
100
AcDbEntity
  8
0
100
AcDbLine
 10
244.9677514802848
 20
341.1421016869764
 30
0.0
 11
209.8817514802848
 21
341.1421016869764
 31
0.0
  0
LINE
  5
153C
330
2
100
AcDbEntity
  8
0
100
AcDbLine
 10
244.9677514802848
 20
314.5991016869764
 30
0.0
 11
209.8817514802848
 21
314.5991016869764
 31
0.0
  0
LINE
  5
153D
330
2
100
AcDbEntity
  8
0
100
AcDbLine
 10
221.5717514802848
 20
354.4136016869764
 30
0.0
 11
221.5717514802848
 21
301.3276016869764
 31
0.0
  0
LINE
  5
153E
330
2
100
AcDbEntity
  8
0
100
AcDbLine
 10
233.2777514802848
 20
354.4136016869764
 30
0.0
 11
233.2777514802848
 21
301.3276016869764
 31
0.0
  0
LINE
  5
153F
330
2
100
AcDbEntity
  8
0
100
AcDbLine
 10
279.6532514802848
 20
294.4136016869764
 30
0.0
 11
279.6532514802848
 21
277.3276016869764
 31
0.0
  0
LINE
  5
1540
330
2
100
AcDbEntity
  8
0
100
AcDbLine
 10
269.3817514802848
 20
285.8706016869764
 30
0.0
 11
310.4677514802848
 21
285.8706016869764
 31
0.0
  0
LWPOLYLINE
  5
1541
330
2
100
AcDbEntity
  8
0
100
AcDbPolyline
 90
        4
 70
     1
 43
0.0
 10
266.1747514802848
 20
274.1206016869764
 10
313.6747514802848
 20
274.1206016869764
 10
313.6747514802848
 20
297.6206016869764
 10
266.1747514802848
 20
297.6206016869764
  0
LWPOLYLINE
  5
1542
330
2
100
AcDbEntity
  8
0
100
AcDbPolyline
 90
        4
 70
     1
 43
0.0
 10
269.3817514802848
 20
277.3276016869764
 10
310.4677514802848
 20
277.3276016869764
 10
310.4677514802848
 20
294.4136016869764
 10
269.3817514802848
 20
294.4136016869764
  0
LWPOLYLINE
  5
1543
330
2
100
AcDbEntity
  8
0
100
AcDbPolyline
 90
        4
 70
     1
 43
0.0
 10
267.0327514802848
 20
274.9786016869764
 10
312.8167514802848
 20
274.9786016869764
 10
312.8167514802848
 20
296.7626016869765
 10
267.0327514802848
 20
296.7626016869765
  0
LINE
  5
1544
330
2
100
AcDbEntity
  8
0
100
AcDbLine
 10
289.9247514802848
 20
294.4136016869764
 30
0.0
 11
289.9247514802848
 21
277.3276016869764
 31
0.0
  0
LINE
  5
1545
330
2
100
AcDbEntity
  8
0
  6
HIDDEN
100
AcDbLine
 10
267.0327514802848
 20
274.9786016869764
 30
0.0
 11
289.9247514802848
 21
296.7626016869765
 31
0.0
  0
LINE
  5
1546
330
2
100
AcDbEntity
  8
0
  6
HIDDEN
100
AcDbLine
 10
289.9247514802848
 20
296.7626016869765
 30
0.0
 11
312.8167514802848
 21
274.9786016869764
 31
0.0
  0
LWPOLYLINE
  5
1547
330
2
100
AcDbEntity
  8
0
100
AcDbPolyline
 90
        4
 70
     1
 43
0.0
 10
266.1747514802848
 20
298.1206016869764
 10
313.6747514802848
 20
298.1206016869764
 10
313.6747514802848
 20
357.6206016869764
 10
266.1747514802848
 20
357.6206016869764
  0
LWPOLYLINE
  5
1548
330
2
100
AcDbEntity
  8
0
100
AcDbPolyline
 90
        4
 70
     1
 43
0.0
 10
269.3817514802848
 20
301.3276016869764
 10
310.4677514802848
 20
301.3276016869764
 10
310.4677514802848
 20
354.4136016869764
 10
269.3817514802848
 20
354.4136016869764
  0
LWPOLYLINE
  5
1549
330
2
100
AcDbEntity
  8
0
100
AcDbPolyline
 90
        4
 70
     1
 43
0.0
 10
267.0327514802848
 20
298.9786016869764
 10
312.8167514802848
 20
298.9786016869764
 10
312.8167514802848
 20
356.7626016869765
 10
267.0327514802848
 20
356.7626016869765
  0
LINE
  5
154A
330
2
100
AcDbEntity
  8
0
100
AcDbLine
 10
266.1747514802848
 20
298.1206016869764
 30
0.0
 11
266.1747514802848
 21
297.6206016869764
 31
0.0
  0
LINE
  5
154B
330
2
100
AcDbEntity
  8
0
100
AcDbLine
 10
313.6747514802848
 20
298.1206016869764
 30
0.0
 11
313.6747514802848
 21
297.6206016869764
 31
0.0
  0
LINE
  5
154C
330
2
100
AcDbEntity
  8
0
100
AcDbLine
 10
310.4677514802848
 20
327.8706016869764
 30
0.0
 11
269.3817514802848
 21
327.8706016869764
 31
0.0
  0
LINE
  5
154D
330
2
100
AcDbEntity
  8
0
100
AcDbLine
 10
310.4677514802848
 20
341.1421016869764
 30
0.0
 11
269.3817514802848
 21
341.1421016869764
 31
0.0
  0
LINE
  5
154E
330
2
100
AcDbEntity
  8
0
100
AcDbLine
 10
310.4677514802848
 20
314.5991016869764
 30
0.0
 11
269.3817514802848
 21
314.5991016869764
 31
0.0
  0
LINE
  5
154F
330
2
100
AcDbEntity
  8
0
100
AcDbLine
 10
279.6532514802848
 20
354.4136016869764
 30
0.0
 11
279.6532514802848
 21
301.3276016869764
 31
0.0
  0
LINE
  5
1550
330
2
100
AcDbEntity
  8
0
100
AcDbLine
 10
289.9247514802848
 20
354.4136016869764
 30
0.0
 11
289.9247514802848
 21
301.3276016869764
 31
0.0
  0
LINE
  5
1551
330
2
100
AcDbEntity
  8
0
100
AcDbLine
 10
300.1962514802848
 20
294.4136016869764
 30
0.0
 11
300.1962514802848
 21
277.3276016869764
 31
0.0
  0
LINE
  5
1552
330
2
100
AcDbEntity
  8
0
100
AcDbLine
 10
300.1962514802848
 20
354.4136016869764
 30
0.0
 11
300.1962514802848
 21
301.3276016869764
 31
0.0
  0
LINE
  5
1553
330
2
100
AcDbEntity
  8
0
100
AcDbLine
 10
348.1532514802848
 20
294.4136016869764
 30
0.0
 11
348.1532514802848
 21
277.3276016869764
 31
0.0
  0
LINE
  5
1554
330
2
100
AcDbEntity
  8
0
100
AcDbLine
 10
334.8817514802848
 20
285.8706016869764
 30
0.0
 11
387.9677514802848
 21
285.8706016869764
 31
0.0
  0
LWPOLYLINE
  5
1555
330
2
100
AcDbEntity
  8
0
100
AcDbPolyline
 90
        4
 70
     1
 43
0.0
 10
331.6747514802848
 20
274.1206016869764
 10
391.1747514802848
 20
274.1206016869764
 10
391.1747514802848
 20
297.6206016869764
 10
331.6747514802848
 20
297.6206016869764
  0
LWPOLYLINE
  5
1556
330
2
100
AcDbEntity
  8
0
100
AcDbPolyline
 90
        4
 70
     1
 43
0.0
 10
334.8817514802848
 20
277.3276016869764
 10
387.9677514802848
 20
277.3276016869764
 10
387.9677514802848
 20
294.4136016869764
 10
334.8817514802848
 20
294.4136016869764
  0
LWPOLYLINE
  5
1557
330
2
100
AcDbEntity
  8
0
100
AcDbPolyline
 90
        4
 70
     1
 43
0.0
 10
332.5327514802848
 20
274.9786016869764
 10
390.3167514802848
 20
274.9786016869764
 10
390.3167514802848
 20
296.7626016869765
 10
332.5327514802848
 20
296.7626016869765
  0
LINE
  5
1558
330
2
100
AcDbEntity
  8
0
100
AcDbLine
 10
361.4247514802848
 20
294.4136016869764
 30
0.0
 11
361.4247514802848
 21
277.3276016869764
 31
0.0
  0
LINE
  5
1559
330
2
100
AcDbEntity
  8
0
  6
HIDDEN
100
AcDbLine
 10
332.5327514802848
 20
274.9786016869764
 30
0.0
 11
361.4247514802848
 21
296.7626016869765
 31
0.0
  0
LINE
  5
155A
330
2
100
AcDbEntity
  8
0
  6
HIDDEN
100
AcDbLine
 10
361.4247514802848
 20
296.7626016869765
 30
0.0
 11
390.3167514802848
 21
274.9786016869764
 31
0.0
  0
LWPOLYLINE
  5
155B
330
2
100
AcDbEntity
  8
0
100
AcDbPolyline
 90
        4
 70
     1
 43
0.0
 10
331.6747514802848
 20
298.1206016869764
 10
391.1747514802848
 20
298.1206016869764
 10
391.1747514802848
 20
357.6206016869764
 10
331.6747514802848
 20
357.6206016869764
  0
LWPOLYLINE
  5
155C
330
2
100
AcDbEntity
  8
0
100
AcDbPolyline
 90
        4
 70
     1
 43
0.0
 10
334.8817514802848
 20
301.3276016869764
 10
387.9677514802848
 20
301.3276016869764
 10
387.9677514802848
 20
354.4136016869764
 10
334.8817514802848
 20
354.4136016869764
  0
LWPOLYLINE
  5
155D
330
2
100
AcDbEntity
  8
0
100
AcDbPolyline
 90
        4
 70
     1
 43
0.0
 10
332.5327514802848
 20
298.9786016869764
 10
390.3167514802848
 20
298.9786016869764
 10
390.3167514802848
 20
356.7626016869765
 10
332.5327514802848
 20
356.7626016869765
  0
LINE
  5
155E
330
2
100
AcDbEntity
  8
0
100
AcDbLine
 10
331.6747514802848
 20
298.1206016869764
 30
0.0
 11
331.6747514802848
 21
297.6206016869764
 31
0.0
  0
LINE
  5
155F
330
2
100
AcDbEntity
  8
0
100
AcDbLine
 10
391.1747514802848
 20
298.1206016869764
 30
0.0
 11
391.1747514802848
 21
297.6206016869764
 31
0.0
  0
LINE
  5
1560
330
2
100
AcDbEntity
  8
0
100
AcDbLine
 10
387.9677514802848
 20
327.8706016869764
 30
0.0
 11
334.8817514802848
 21
327.8706016869764
 31
0.0
  0
LINE
  5
1561
330
2
100
AcDbEntity
  8
0
100
AcDbLine
 10
387.9677514802848
 20
341.1421016869764
 30
0.0
 11
334.8817514802848
 21
341.1421016869764
 31
0.0
  0
LINE
  5
1562
330
2
100
AcDbEntity
  8
0
100
AcDbLine
 10
387.9677514802848
 20
314.5991016869764
 30
0.0
 11
334.8817514802848
 21
314.5991016869764
 31
0.0
  0
LINE
  5
1563
330
2
100
AcDbEntity
  8
0
100
AcDbLine
 10
348.1532514802848
 20
354.4136016869764
 30
0.0
 11
348.1532514802848
 21
301.3276016869764
 31
0.0
  0
LINE
  5
1564
330
2
100
AcDbEntity
  8
0
100
AcDbLine
 10
361.4247514802848
 20
354.4136016869764
 30
0.0
 11
361.4247514802848
 21
301.3276016869764
 31
0.0
  0
LINE
  5
1565
330
2
100
AcDbEntity
  8
0
100
AcDbLine
 10
374.6962514802848
 20
294.4136016869764
 30
0.0
 11
374.6962514802848
 21
277.3276016869764
 31
0.0
  0
LINE
  5
1566
330
2
100
AcDbEntity
  8
0
100
AcDbLine
 10
374.6962514802848
 20
354.4136016869764
 30
0.0
 11
374.6962514802848
 21
301.3276016869764
 31
0.0
  0
LINE
  5
1567
330
2
100
AcDbEntity
  8
0
100
AcDbLine
 10
166.0717514802847
 20
204.9136016869764
 30
0.0
 11
166.0717514802847
 21
181.8276016869764
 31
0.0
  0
LINE
  5
1568
330
2
100
AcDbEntity
  8
0
100
AcDbLine
 10
156.3817514802847
 20
193.3706016869764
 30
0.0
 11
185.4677514802847
 21
193.3706016869764
 31
0.0
  0
LWPOLYLINE
  5
1569
330
2
100
AcDbEntity
  8
0
100
AcDbPolyline
 90
        4
 70
     1
 43
0.0
 10
153.1747514802848
 20
178.6206016869764
 10
188.6747514802847
 20
178.6206016869764
 10
188.6747514802847
 20
208.1206016869764
 10
153.1747514802848
 20
208.1206016869764
  0
LWPOLYLINE
  5
156A
330
2
100
AcDbEntity
  8
0
100
AcDbPolyline
 90
        4
 70
     1
 43
0.0
 10
156.3817514802847
 20
181.8276016869764
 10
185.4677514802847
 20
181.8276016869764
 10
185.4677514802847
 20
204.9136016869764
 10
156.3817514802847
 20
204.9136016869764
  0
LWPOLYLINE
  5
156B
330
2
100
AcDbEntity
  8
0
100
AcDbPolyline
 90
        4
 70
     1
 43
0.0
 10
154.0327514802848
 20
179.4786016869764
 10
187.8167514802847
 20
179.4786016869764
 10
187.8167514802847
 20
207.2626016869765
 10
154.0327514802848
 20
207.2626016869765
  0
LINE
  5
156C
330
2
100
AcDbEntity
  8
0
100
AcDbLine
 10
175.7777514802847
 20
204.9136016869764
 30
0.0
 11
175.7777514802847
 21
181.8276016869764
 31
0.0
  0
LINE
  5
156D
330
2
100
AcDbEntity
  8
0
  6
HIDDEN
100
AcDbLine
 10
154.0327514802848
 20
179.4786016869764
 30
0.0
 11
170.9247514802847
 21
207.2626016869765
 31
0.0
  0
LINE
  5
156E
330
2
100
AcDbEntity
  8
0
  6
HIDDEN
100
AcDbLine
 10
170.9247514802847
 20
207.2626016869765
 30
0.0
 11
187.8167514802847
 21
179.4786016869764
 31
0.0
  0
LWPOLYLINE
  5
156F
330
2
100
AcDbEntity
  8
0
100
AcDbPolyline
 90
        4
 70
     1
 43
0.0
 10
153.1747514802848
 20
208.6206016869764
 10
188.6747514802847
 20
208.6206016869764
 10
188.6747514802847
 20
256.1206016869764
 10
153.1747514802848
 20
256.1206016869764
  0
LWPOLYLINE
  5
1570
330
2
100
AcDbEntity
  8
0
100
AcDbPolyline
 90
        4
 70
     1
 43
0.0
 10
156.3817514802847
 20
211.8276016869764
 10
185.4677514802847
 20
211.8276016869764
 10
185.4677514802847
 20
252.9136016869764
 10
156.3817514802847
 20
252.9136016869764
  0
LWPOLYLINE
  5
1571
330
2
100
AcDbEntity
  8
0
100
AcDbPolyline
 90
        4
 70
     1
 43
0.0
 10
154.0327514802848
 20
209.4786016869764
 10
187.8167514802847
 20
209.4786016869764
 10
187.8167514802847
 20
255.2626016869765
 10
154.0327514802848
 20
255.2626016869765
  0
LINE
  5
1572
330
2
100
AcDbEntity
  8
0
100
AcDbLine
 10
153.1747514802848
 20
208.6206016869764
 30
0.0
 11
153.1747514802848
 21
208.1206016869764
 31
0.0
  0
LINE
  5
1573
330
2
100
AcDbEntity
  8
0
100
AcDbLine
 10
188.6747514802847
 20
208.6206016869764
 30
0.0
 11
188.6747514802847
 21
208.1206016869764
 31
0.0
  0
LINE
  5
1574
330
2
100
AcDbEntity
  8
0
100
AcDbLine
 10
185.4677514802847
 20
232.3706016869764
 30
0.0
 11
156.3817514802847
 21
232.3706016869764
 31
0.0
  0
LINE
  5
1575
330
2
100
AcDbEntity
  8
0
100
AcDbLine
 10
185.4677514802847
 20
242.6421016869764
 30
0.0
 11
156.3817514802847
 21
242.6421016869764
 31
0.0
  0
LINE
  5
1576
330
2
100
AcDbEntity
  8
0
100
AcDbLine
 10
185.4677514802847
 20
222.0991016869764
 30
0.0
 11
156.3817514802847
 21
222.0991016869764
 31
0.0
  0
LINE
  5
1577
330
2
100
AcDbEntity
  8
0
100
AcDbLine
 10
166.0717514802847
 20
252.9136016869764
 30
0.0
 11
166.0717514802847
 21
211.8276016869764
 31
0.0
  0
LINE
  5
1578
330
2
100
AcDbEntity
  8
0
100
AcDbLine
 10
175.7777514802847
 20
252.9136016869764
 30
0.0
 11
175.7777514802847
 21
211.8276016869764
 31
0.0
  0
LINE
  5
1579
330
2
100
AcDbEntity
  8
0
100
AcDbLine
 10
221.5717514802847
 20
204.9136016869764
 30
0.0
 11
221.5717514802847
 21
181.8276016869764
 31
0.0
  0
LINE
  5
157A
330
2
100
AcDbEntity
  8
0
100
AcDbLine
 10
209.8817514802847
 20
193.3706016869764
 30
0.0
 11
244.9677514802847
 21
193.3706016869764
 31
0.0
  0
LWPOLYLINE
  5
157B
330
2
100
AcDbEntity
  8
0
100
AcDbPolyline
 90
        4
 70
     1
 43
0.0
 10
206.6747514802847
 20
178.6206016869764
 10
248.1747514802847
 20
178.6206016869764
 10
248.1747514802847
 20
208.1206016869764
 10
206.6747514802847
 20
208.1206016869764
  0
LWPOLYLINE
  5
157C
330
2
100
AcDbEntity
  8
0
100
AcDbPolyline
 90
        4
 70
     1
 43
0.0
 10
209.8817514802847
 20
181.8276016869764
 10
244.9677514802847
 20
181.8276016869764
 10
244.9677514802847
 20
204.9136016869764
 10
209.8817514802847
 20
204.9136016869764
  0
LWPOLYLINE
  5
157D
330
2
100
AcDbEntity
  8
0
100
AcDbPolyline
 90
        4
 70
     1
 43
0.0
 10
207.5327514802847
 20
179.4786016869764
 10
247.3167514802847
 20
179.4786016869764
 10
247.3167514802847
 20
207.2626016869765
 10
207.5327514802847
 20
207.2626016869765
  0
LINE
  5
157E
330
2
100
AcDbEntity
  8
0
100
AcDbLine
 10
233.2777514802847
 20
204.9136016869764
 30
0.0
 11
233.2777514802847
 21
181.8276016869764
 31
0.0
  0
LINE
  5
157F
330
2
100
AcDbEntity
  8
0
  6
HIDDEN
100
AcDbLine
 10
207.5327514802847
 20
179.4786016869764
 30
0.0
 11
227.4247514802847
 21
207.2626016869765
 31
0.0
  0
LINE
  5
1580
330
2
100
AcDbEntity
  8
0
  6
HIDDEN
100
AcDbLine
 10
227.4247514802847
 20
207.2626016869765
 30
0.0
 11
247.3167514802847
 21
179.4786016869764
 31
0.0
  0
LWPOLYLINE
  5
1581
330
2
100
AcDbEntity
  8
0
100
AcDbPolyline
 90
        4
 70
     1
 43
0.0
 10
206.6747514802847
 20
208.6206016869764
 10
248.1747514802847
 20
208.6206016869764
 10
248.1747514802847
 20
256.1206016869764
 10
206.6747514802847
 20
256.1206016869764
  0
LWPOLYLINE
  5
1582
330
2
100
AcDbEntity
  8
0
100
AcDbPolyline
 90
        4
 70
     1
 43
0.0
 10
209.8817514802847
 20
211.8276016869764
 10
244.9677514802847
 20
211.8276016869764
 10
244.9677514802847
 20
252.9136016869764
 10
209.8817514802847
 20
252.9136016869764
  0
LWPOLYLINE
  5
1583
330
2
100
AcDbEntity
  8
0
100
AcDbPolyline
 90
        4
 70
     1
 43
0.0
 10
207.5327514802847
 20
209.4786016869764
 10
247.3167514802847
 20
209.4786016869764
 10
247.3167514802847
 20
255.2626016869765
 10
207.5327514802847
 20
255.2626016869765
  0
LINE
  5
1584
330
2
100
AcDbEntity
  8
0
100
AcDbLine
 10
206.6747514802847
 20
208.6206016869764
 30
0.0
 11
206.6747514802847
 21
208.1206016869764
 31
0.0
  0
LINE
  5
1585
330
2
100
AcDbEntity
  8
0
100
AcDbLine
 10
248.1747514802847
 20
208.6206016869764
 30
0.0
 11
248.1747514802847
 21
208.1206016869764
 31
0.0
  0
LINE
  5
1586
330
2
100
AcDbEntity
  8
0
100
AcDbLine
 10
244.9677514802847
 20
232.3706016869764
 30
0.0
 11
209.8817514802847
 21
232.3706016869764
 31
0.0
  0
LINE
  5
1587
330
2
100
AcDbEntity
  8
0
100
AcDbLine
 10
244.9677514802847
 20
242.6421016869764
 30
0.0
 11
209.8817514802847
 21
242.6421016869764
 31
0.0
  0
LINE
  5
1588
330
2
100
AcDbEntity
  8
0
100
AcDbLine
 10
244.9677514802847
 20
222.0991016869764
 30
0.0
 11
209.8817514802847
 21
222.0991016869764
 31
0.0
  0
LINE
  5
1589
330
2
100
AcDbEntity
  8
0
100
AcDbLine
 10
221.5717514802847
 20
252.9136016869764
 30
0.0
 11
221.5717514802847
 21
211.8276016869764
 31
0.0
  0
LINE
  5
158A
330
2
100
AcDbEntity
  8
0
100
AcDbLine
 10
233.2777514802847
 20
252.9136016869764
 30
0.0
 11
233.2777514802847
 21
211.8276016869764
 31
0.0
  0
LINE
  5
158B
330
2
100
AcDbEntity
  8
0
100
AcDbLine
 10
279.6532514802847
 20
204.9136016869764
 30
0.0
 11
279.6532514802847
 21
181.8276016869764
 31
0.0
  0
LINE
  5
158C
330
2
100
AcDbEntity
  8
0
100
AcDbLine
 10
269.3817514802847
 20
193.3706016869764
 30
0.0
 11
310.4677514802848
 21
193.3706016869764
 31
0.0
  0
LWPOLYLINE
  5
158D
330
2
100
AcDbEntity
  8
0
100
AcDbPolyline
 90
        4
 70
     1
 43
0.0
 10
266.1747514802847
 20
178.6206016869764
 10
313.6747514802848
 20
178.6206016869764
 10
313.6747514802848
 20
208.1206016869764
 10
266.1747514802847
 20
208.1206016869764
  0
LWPOLYLINE
  5
158E
330
2
100
AcDbEntity
  8
0
100
AcDbPolyline
 90
        4
 70
     1
 43
0.0
 10
269.3817514802847
 20
181.8276016869764
 10
310.4677514802848
 20
181.8276016869764
 10
310.4677514802848
 20
204.9136016869764
 10
269.3817514802847
 20
204.9136016869764
  0
LWPOLYLINE
  5
158F
330
2
100
AcDbEntity
  8
0
100
AcDbPolyline
 90
        4
 70
     1
 43
0.0
 10
267.0327514802847
 20
179.4786016869764
 10
312.8167514802847
 20
179.4786016869764
 10
312.8167514802847
 20
207.2626016869765
 10
267.0327514802847
 20
207.2626016869765
  0
LINE
  5
1590
330
2
100
AcDbEntity
  8
0
100
AcDbLine
 10
289.9247514802847
 20
204.9136016869764
 30
0.0
 11
289.9247514802847
 21
181.8276016869764
 31
0.0
  0
LINE
  5
1591
330
2
100
AcDbEntity
  8
0
  6
HIDDEN
100
AcDbLine
 10
267.0327514802847
 20
179.4786016869764
 30
0.0
 11
289.9247514802847
 21
207.2626016869765
 31
0.0
  0
LINE
  5
1592
330
2
100
AcDbEntity
  8
0
  6
HIDDEN
100
AcDbLine
 10
289.9247514802847
 20
207.2626016869765
 30
0.0
 11
312.8167514802847
 21
179.4786016869764
 31
0.0
  0
LWPOLYLINE
  5
1593
330
2
100
AcDbEntity
  8
0
100
AcDbPolyline
 90
        4
 70
     1
 43
0.0
 10
266.1747514802847
 20
208.6206016869764
 10
313.6747514802848
 20
208.6206016869764
 10
313.6747514802848
 20
256.1206016869764
 10
266.1747514802847
 20
256.1206016869764
  0
LWPOLYLINE
  5
1594
330
2
100
AcDbEntity
  8
0
100
AcDbPolyline
 90
        4
 70
     1
 43
0.0
 10
269.3817514802847
 20
211.8276016869764
 10
310.4677514802848
 20
211.8276016869764
 10
310.4677514802848
 20
252.9136016869764
 10
269.3817514802847
 20
252.9136016869764
  0
LWPOLYLINE
  5
1595
330
2
100
AcDbEntity
  8
0
100
AcDbPolyline
 90
        4
 70
     1
 43
0.0
 10
267.0327514802847
 20
209.4786016869764
 10
312.8167514802847
 20
209.4786016869764
 10
312.8167514802847
 20
255.2626016869765
 10
267.0327514802847
 20
255.2626016869765
  0
LINE
  5
1596
330
2
100
AcDbEntity
  8
0
100
AcDbLine
 10
266.1747514802847
 20
208.6206016869764
 30
0.0
 11
266.1747514802847
 21
208.1206016869764
 31
0.0
  0
LINE
  5
1597
330
2
100
AcDbEntity
  8
0
100
AcDbLine
 10
313.6747514802848
 20
208.6206016869764
 30
0.0
 11
313.6747514802848
 21
208.1206016869764
 31
0.0
  0
LINE
  5
1598
330
2
100
AcDbEntity
  8
0
100
AcDbLine
 10
310.4677514802848
 20
232.3706016869764
 30
0.0
 11
269.3817514802847
 21
232.3706016869764
 31
0.0
  0
LINE
  5
1599
330
2
100
AcDbEntity
  8
0
100
AcDbLine
 10
310.4677514802848
 20
242.6421016869764
 30
0.0
 11
269.3817514802847
 21
242.6421016869764
 31
0.0
  0
LINE
  5
159A
330
2
100
AcDbEntity
  8
0
100
AcDbLine
 10
310.4677514802848
 20
222.0991016869764
 30
0.0
 11
269.3817514802847
 21
222.0991016869764
 31
0.0
  0
LINE
  5
159B
330
2
100
AcDbEntity
  8
0
100
AcDbLine
 10
279.6532514802847
 20
252.9136016869764
 30
0.0
 11
279.6532514802847
 21
211.8276016869764
 31
0.0
  0
LINE
  5
159C
330
2
100
AcDbEntity
  8
0
100
AcDbLine
 10
289.9247514802847
 20
252.9136016869764
 30
0.0
 11
289.9247514802847
 21
211.8276016869764
 31
0.0
  0
LINE
  5
159D
330
2
100
AcDbEntity
  8
0
100
AcDbLine
 10
300.1962514802847
 20
204.9136016869764
 30
0.0
 11
300.1962514802847
 21
181.8276016869764
 31
0.0
  0
LINE
  5
159E
330
2
100
AcDbEntity
  8
0
100
AcDbLine
 10
300.1962514802847
 20
252.9136016869764
 30
0.0
 11
300.1962514802847
 21
211.8276016869764
 31
0.0
  0
LINE
  5
159F
330
2
100
AcDbEntity
  8
0
100
AcDbLine
 10
348.1532514802848
 20
204.9136016869764
 30
0.0
 11
348.1532514802848
 21
181.8276016869764
 31
0.0
  0
LINE
  5
15A0
330
2
100
AcDbEntity
  8
0
100
AcDbLine
 10
334.8817514802848
 20
193.3706016869764
 30
0.0
 11
387.9677514802848
 21
193.3706016869764
 31
0.0
  0
LWPOLYLINE
  5
15A1
330
2
100
AcDbEntity
  8
0
100
AcDbPolyline
 90
        4
 70
     1
 43
0.0
 10
331.6747514802848
 20
178.6206016869764
 10
391.1747514802848
 20
178.6206016869764
 10
391.1747514802848
 20
208.1206016869764
 10
331.6747514802848
 20
208.1206016869764
  0
LWPOLYLINE
  5
15A2
330
2
100
AcDbEntity
  8
0
100
AcDbPolyline
 90
        4
 70
     1
 43
0.0
 10
334.8817514802848
 20
181.8276016869764
 10
387.9677514802848
 20
181.8276016869764
 10
387.9677514802848
 20
204.9136016869764
 10
334.8817514802848
 20
204.9136016869764
  0
LWPOLYLINE
  5
15A3
330
2
100
AcDbEntity
  8
0
100
AcDbPolyline
 90
        4
 70
     1
 43
0.0
 10
332.5327514802848
 20
179.4786016869764
 10
390.3167514802848
 20
179.4786016869764
 10
390.3167514802848
 20
207.2626016869765
 10
332.5327514802848
 20
207.2626016869765
  0
LINE
  5
15A4
330
2
100
AcDbEntity
  8
0
100
AcDbLine
 10
361.4247514802848
 20
204.9136016869764
 30
0.0
 11
361.4247514802848
 21
181.8276016869764
 31
0.0
  0
LINE
  5
15A5
330
2
100
AcDbEntity
  8
0
  6
HIDDEN
100
AcDbLine
 10
332.5327514802848
 20
179.4786016869764
 30
0.0
 11
361.4247514802848
 21
207.2626016869765
 31
0.0
  0
LINE
  5
15A6
330
2
100
AcDbEntity
  8
0
  6
HIDDEN
100
AcDbLine
 10
361.4247514802848
 20
207.2626016869765
 30
0.0
 11
390.3167514802848
 21
179.4786016869764
 31
0.0
  0
LWPOLYLINE
  5
15A7
330
2
100
AcDbEntity
  8
0
100
AcDbPolyline
 90
        4
 70
     1
 43
0.0
 10
331.6747514802848
 20
208.6206016869764
 10
391.1747514802848
 20
208.6206016869764
 10
391.1747514802848
 20
256.1206016869764
 10
331.6747514802848
 20
256.1206016869764
  0
LWPOLYLINE
  5
15A8
330
2
100
AcDbEntity
  8
0
100
AcDbPolyline
 90
        4
 70
     1
 43
0.0
 10
334.8817514802848
 20
211.8276016869764
 10
387.9677514802848
 20
211.8276016869764
 10
387.9677514802848
 20
252.9136016869764
 10
334.8817514802848
 20
252.9136016869764
  0
LWPOLYLINE
  5
15A9
330
2
100
AcDbEntity
  8
0
100
AcDbPolyline
 90
        4
 70
     1
 43
0.0
 10
332.5327514802848
 20
209.4786016869764
 10
390.3167514802848
 20
209.4786016869764
 10
390.3167514802848
 20
255.2626016869765
 10
332.5327514802848
 20
255.2626016869765
  0
LINE
  5
15AA
330
2
100
AcDbEntity
  8
0
100
AcDbLine
 10
331.6747514802848
 20
208.6206016869764
 30
0.0
 11
331.6747514802848
 21
208.1206016869764
 31
0.0
  0
LINE
  5
15AB
330
2
100
AcDbEntity
  8
0
100
AcDbLine
 10
391.1747514802848
 20
208.6206016869764
 30
0.0
 11
391.1747514802848
 21
208.1206016869764
 31
0.0
  0
LINE
  5
15AC
330
2
100
AcDbEntity
  8
0
100
AcDbLine
 10
387.9677514802848
 20
232.3706016869764
 30
0.0
 11
334.8817514802848
 21
232.3706016869764
 31
0.0
  0
LINE
  5
15AD
330
2
100
AcDbEntity
  8
0
100
AcDbLine
 10
387.9677514802848
 20
242.6421016869764
 30
0.0
 11
334.8817514802848
 21
242.6421016869764
 31
0.0
  0
LINE
  5
15AE
330
2
100
AcDbEntity
  8
0
100
AcDbLine
 10
387.9677514802848
 20
222.0991016869764
 30
0.0
 11
334.8817514802848
 21
222.0991016869764
 31
0.0
  0
LINE
  5
15AF
330
2
100
AcDbEntity
  8
0
100
AcDbLine
 10
348.1532514802848
 20
252.9136016869764
 30
0.0
 11
348.1532514802848
 21
211.8276016869764
 31
0.0
  0
LINE
  5
15B0
330
2
100
AcDbEntity
  8
0
100
AcDbLine
 10
361.4247514802848
 20
252.9136016869764
 30
0.0
 11
361.4247514802848
 21
211.8276016869764
 31
0.0
  0
LINE
  5
15B1
330
2
100
AcDbEntity
  8
0
100
AcDbLine
 10
374.6962514802848
 20
204.9136016869764
 30
0.0
 11
374.6962514802848
 21
181.8276016869764
 31
0.0
  0
LINE
  5
15B2
330
2
100
AcDbEntity
  8
0
100
AcDbLine
 10
374.6962514802848
 20
252.9136016869764
 30
0.0
 11
374.6962514802848
 21
211.8276016869764
 31
0.0
  0
LINE
  5
15B3
330
2
100
AcDbEntity
  8
0
100
AcDbLine
 10
166.0717514802848
 20
97.41360168697645
 30
0.0
 11
166.0717514802848
 21
74.32760168697644
 31
0.0
  0
LINE
  5
15B4
330
2
100
AcDbEntity
  8
0
100
AcDbLine
 10
156.3817514802848
 20
85.87060168697644
 30
0.0
 11
185.4677514802848
 21
85.87060168697644
 31
0.0
  0
LWPOLYLINE
  5
15B5
330
2
100
AcDbEntity
  8
0
100
AcDbPolyline
 90
        4
 70
     1
 43
0.0
 10
153.1747514802848
 20
71.12060168697644
 10
188.6747514802848
 20
71.12060168697644
 10
188.6747514802848
 20
100.6206016869764
 10
153.1747514802848
 20
100.6206016869764
  0
LWPOLYLINE
  5
15B6
330
2
100
AcDbEntity
  8
0
100
AcDbPolyline
 90
        4
 70
     1
 43
0.0
 10
156.3817514802848
 20
74.32760168697644
 10
185.4677514802848
 20
74.32760168697644
 10
185.4677514802848
 20
97.41360168697645
 10
156.3817514802848
 20
97.41360168697645
  0
LWPOLYLINE
  5
15B7
330
2
100
AcDbEntity
  8
0
100
AcDbPolyline
 90
        4
 70
     1
 43
0.0
 10
154.0327514802848
 20
71.97860168697639
 10
187.8167514802848
 20
71.97860168697639
 10
187.8167514802848
 20
99.7626016869765
 10
154.0327514802848
 20
99.7626016869765
  0
LINE
  5
15B8
330
2
100
AcDbEntity
  8
0
100
AcDbLine
 10
175.7777514802848
 20
97.41360168697645
 30
0.0
 11
175.7777514802848
 21
74.32760168697644
 31
0.0
  0
LINE
  5
15B9
330
2
100
AcDbEntity
  8
0
  6
HIDDEN
100
AcDbLine
 10
154.0327514802848
 20
71.97860168697639
 30
0.0
 11
170.9247514802848
 21
99.7626016869765
 31
0.0
  0
LINE
  5
15BA
330
2
100
AcDbEntity
  8
0
  6
HIDDEN
100
AcDbLine
 10
170.9247514802848
 20
99.7626016869765
 30
0.0
 11
187.8167514802848
 21
71.97860168697639
 31
0.0
  0
LWPOLYLINE
  5
15BB
330
2
100
AcDbEntity
  8
0
100
AcDbPolyline
 90
        4
 70
     1
 43
0.0
 10
153.1747514802848
 20
101.1206016869764
 10
188.6747514802848
 20
101.1206016869764
 10
188.6747514802848
 20
160.6206016869764
 10
153.1747514802848
 20
160.6206016869764
  0
LWPOLYLINE
  5
15BC
330
2
100
AcDbEntity
  8
0
100
AcDbPolyline
 90
        4
 70
     1
 43
0.0
 10
156.3817514802848
 20
104.3276016869764
 10
185.4677514802848
 20
104.3276016869764
 10
185.4677514802848
 20
157.4136016869764
 10
156.3817514802848
 20
157.4136016869764
  0
LWPOLYLINE
  5
15BD
330
2
100
AcDbEntity
  8
0
100
AcDbPolyline
 90
        4
 70
     1
 43
0.0
 10
154.0327514802848
 20
101.9786016869764
 10
187.8167514802848
 20
101.9786016869764
 10
187.8167514802848
 20
159.7626016869765
 10
154.0327514802848
 20
159.7626016869765
  0
LINE
  5
15BE
330
2
100
AcDbEntity
  8
0
100
AcDbLine
 10
153.1747514802848
 20
101.1206016869764
 30
0.0
 11
153.1747514802848
 21
100.6206016869764
 31
0.0
  0
LINE
  5
15BF
330
2
100
AcDbEntity
  8
0
100
AcDbLine
 10
188.6747514802848
 20
101.1206016869764
 30
0.0
 11
188.6747514802848
 21
100.6206016869764
 31
0.0
  0
LINE
  5
15C0
330
2
100
AcDbEntity
  8
0
100
AcDbLine
 10
185.4677514802848
 20
130.8706016869764
 30
0.0
 11
156.3817514802848
 21
130.8706016869764
 31
0.0
  0
LINE
  5
15C1
330
2
100
AcDbEntity
  8
0
100
AcDbLine
 10
185.4677514802848
 20
144.1421016869764
 30
0.0
 11
156.3817514802848
 21
144.1421016869764
 31
0.0
  0
LINE
  5
15C2
330
2
100
AcDbEntity
  8
0
100
AcDbLine
 10
185.4677514802848
 20
117.5991016869764
 30
0.0
 11
156.3817514802848
 21
117.5991016869764
 31
0.0
  0
LINE
  5
15C3
330
2
100
AcDbEntity
  8
0
100
AcDbLine
 10
166.0717514802848
 20
157.4136016869764
 30
0.0
 11
166.0717514802848
 21
104.3276016869764
 31
0.0
  0
LINE
  5
15C4
330
2
100
AcDbEntity
  8
0
100
AcDbLine
 10
175.7777514802848
 20
157.4136016869764
 30
0.0
 11
175.7777514802848
 21
104.3276016869764
 31
0.0
  0
LINE
  5
15C5
330
2
100
AcDbEntity
  8
0
100
AcDbLine
 10
221.5717514802848
 20
97.41360168697645
 30
0.0
 11
221.5717514802848
 21
74.32760168697644
 31
0.0
  0
LINE
  5
15C6
330
2
100
AcDbEntity
  8
0
100
AcDbLine
 10
209.8817514802848
 20
85.87060168697644
 30
0.0
 11
244.9677514802848
 21
85.87060168697644
 31
0.0
  0
LWPOLYLINE
  5
15C7
330
2
100
AcDbEntity
  8
0
100
AcDbPolyline
 90
        4
 70
     1
 43
0.0
 10
206.6747514802848
 20
71.12060168697644
 10
248.1747514802848
 20
71.12060168697644
 10
248.1747514802848
 20
100.6206016869764
 10
206.6747514802848
 20
100.6206016869764
  0
LWPOLYLINE
  5
15C8
330
2
100
AcDbEntity
  8
0
100
AcDbPolyline
 90
        4
 70
     1
 43
0.0
 10
209.8817514802848
 20
74.32760168697644
 10
244.9677514802848
 20
74.32760168697644
 10
244.9677514802848
 20
97.41360168697645
 10
209.8817514802848
 20
97.41360168697645
  0
LWPOLYLINE
  5
15C9
330
2
100
AcDbEntity
  8
0
100
AcDbPolyline
 90
        4
 70
     1
 43
0.0
 10
207.5327514802848
 20
71.97860168697639
 10
247.3167514802848
 20
71.97860168697639
 10
247.3167514802848
 20
99.7626016869765
 10
207.5327514802848
 20
99.7626016869765
  0
LINE
  5
15CA
330
2
100
AcDbEntity
  8
0
100
AcDbLine
 10
233.2777514802848
 20
97.41360168697645
 30
0.0
 11
233.2777514802848
 21
74.32760168697644
 31
0.0
  0
LINE
  5
15CB
330
2
100
AcDbEntity
  8
0
  6
HIDDEN
100
AcDbLine
 10
207.5327514802848
 20
71.97860168697639
 30
0.0
 11
227.4247514802848
 21
99.7626016869765
 31
0.0
  0
LINE
  5
15CC
330
2
100
AcDbEntity
  8
0
  6
HIDDEN
100
AcDbLine
 10
227.4247514802848
 20
99.7626016869765
 30
0.0
 11
247.3167514802848
 21
71.97860168697639
 31
0.0
  0
LWPOLYLINE
  5
15CD
330
2
100
AcDbEntity
  8
0
100
AcDbPolyline
 90
        4
 70
     1
 43
0.0
 10
206.6747514802848
 20
101.1206016869764
 10
248.1747514802848
 20
101.1206016869764
 10
248.1747514802848
 20
160.6206016869764
 10
206.6747514802848
 20
160.6206016869764
  0
LWPOLYLINE
  5
15CE
330
2
100
AcDbEntity
  8
0
100
AcDbPolyline
 90
        4
 70
     1
 43
0.0
 10
209.8817514802848
 20
104.3276016869764
 10
244.9677514802848
 20
104.3276016869764
 10
244.9677514802848
 20
157.4136016869764
 10
209.8817514802848
 20
157.4136016869764
  0
LWPOLYLINE
  5
15CF
330
2
100
AcDbEntity
  8
0
100
AcDbPolyline
 90
        4
 70
     1
 43
0.0
 10
207.5327514802848
 20
101.9786016869764
 10
247.3167514802848
 20
101.9786016869764
 10
247.3167514802848
 20
159.7626016869765
 10
207.5327514802848
 20
159.7626016869765
  0
LINE
  5
15D0
330
2
100
AcDbEntity
  8
0
100
AcDbLine
 10
206.6747514802848
 20
101.1206016869764
 30
0.0
 11
206.6747514802848
 21
100.6206016869764
 31
0.0
  0
LINE
  5
15D1
330
2
100
AcDbEntity
  8
0
100
AcDbLine
 10
248.1747514802848
 20
101.1206016869764
 30
0.0
 11
248.1747514802848
 21
100.6206016869764
 31
0.0
  0
LINE
  5
15D2
330
2
100
AcDbEntity
  8
0
100
AcDbLine
 10
244.9677514802848
 20
130.8706016869764
 30
0.0
 11
209.8817514802848
 21
130.8706016869764
 31
0.0
  0
LINE
  5
15D3
330
2
100
AcDbEntity
  8
0
100
AcDbLine
 10
244.9677514802848
 20
144.1421016869764
 30
0.0
 11
209.8817514802848
 21
144.1421016869764
 31
0.0
  0
LINE
  5
15D4
330
2
100
AcDbEntity
  8
0
100
AcDbLine
 10
244.9677514802848
 20
117.5991016869764
 30
0.0
 11
209.8817514802848
 21
117.5991016869764
 31
0.0
  0
LINE
  5
15D5
330
2
100
AcDbEntity
  8
0
100
AcDbLine
 10
221.5717514802848
 20
157.4136016869764
 30
0.0
 11
221.5717514802848
 21
104.3276016869764
 31
0.0
  0
LINE
  5
15D6
330
2
100
AcDbEntity
  8
0
100
AcDbLine
 10
233.2777514802848
 20
157.4136016869764
 30
0.0
 11
233.2777514802848
 21
104.3276016869764
 31
0.0
  0
LINE
  5
15D7
330
2
100
AcDbEntity
  8
0
100
AcDbLine
 10
279.6532514802848
 20
97.41360168697645
 30
0.0
 11
279.6532514802848
 21
74.32760168697644
 31
0.0
  0
LINE
  5
15D8
330
2
100
AcDbEntity
  8
0
100
AcDbLine
 10
269.3817514802848
 20
85.87060168697644
 30
0.0
 11
310.4677514802848
 21
85.87060168697644
 31
0.0
  0
LWPOLYLINE
  5
15D9
330
2
100
AcDbEntity
  8
0
100
AcDbPolyline
 90
        4
 70
     1
 43
0.0
 10
266.1747514802848
 20
71.12060168697644
 10
313.6747514802848
 20
71.12060168697644
 10
313.6747514802848
 20
100.6206016869764
 10
266.1747514802848
 20
100.6206016869764
  0
LWPOLYLINE
  5
15DA
330
2
100
AcDbEntity
  8
0
100
AcDbPolyline
 90
        4
 70
     1
 43
0.0
 10
269.3817514802848
 20
74.32760168697644
 10
310.4677514802848
 20
74.32760168697644
 10
310.4677514802848
 20
97.41360168697645
 10
269.3817514802848
 20
97.41360168697645
  0
LWPOLYLINE
  5
15DB
330
2
100
AcDbEntity
  8
0
100
AcDbPolyline
 90
        4
 70
     1
 43
0.0
 10
267.0327514802848
 20
71.97860168697639
 10
312.8167514802848
 20
71.97860168697639
 10
312.8167514802848
 20
99.7626016869765
 10
267.0327514802848
 20
99.7626016869765
  0
LINE
  5
15DC
330
2
100
AcDbEntity
  8
0
100
AcDbLine
 10
289.9247514802848
 20
97.41360168697645
 30
0.0
 11
289.9247514802848
 21
74.32760168697644
 31
0.0
  0
LINE
  5
15DD
330
2
100
AcDbEntity
  8
0
  6
HIDDEN
100
AcDbLine
 10
267.0327514802848
 20
71.97860168697639
 30
0.0
 11
289.9247514802848
 21
99.7626016869765
 31
0.0
  0
LINE
  5
15DE
330
2
100
AcDbEntity
  8
0
  6
HIDDEN
100
AcDbLine
 10
289.9247514802848
 20
99.7626016869765
 30
0.0
 11
312.8167514802848
 21
71.97860168697639
 31
0.0
  0
LWPOLYLINE
  5
15DF
330
2
100
AcDbEntity
  8
0
100
AcDbPolyline
 90
        4
 70
     1
 43
0.0
 10
266.1747514802848
 20
101.1206016869764
 10
313.6747514802848
 20
101.1206016869764
 10
313.6747514802848
 20
160.6206016869764
 10
266.1747514802848
 20
160.6206016869764
  0
LWPOLYLINE
  5
15E0
330
2
100
AcDbEntity
  8
0
100
AcDbPolyline
 90
        4
 70
     1
 43
0.0
 10
269.3817514802848
 20
104.3276016869764
 10
310.4677514802848
 20
104.3276016869764
 10
310.4677514802848
 20
157.4136016869764
 10
269.3817514802848
 20
157.4136016869764
  0
LWPOLYLINE
  5
15E1
330
2
100
AcDbEntity
  8
0
100
AcDbPolyline
 90
        4
 70
     1
 43
0.0
 10
267.0327514802848
 20
101.9786016869764
 10
312.8167514802848
 20
101.9786016869764
 10
312.8167514802848
 20
159.7626016869765
 10
267.0327514802848
 20
159.7626016869765
  0
LINE
  5
15E2
330
2
100
AcDbEntity
  8
0
100
AcDbLine
 10
266.1747514802848
 20
101.1206016869764
 30
0.0
 11
266.1747514802848
 21
100.6206016869764
 31
0.0
  0
LINE
  5
15E3
330
2
100
AcDbEntity
  8
0
100
AcDbLine
 10
313.6747514802848
 20
101.1206016869764
 30
0.0
 11
313.6747514802848
 21
100.6206016869764
 31
0.0
  0
LINE
  5
15E4
330
2
100
AcDbEntity
  8
0
100
AcDbLine
 10
310.4677514802848
 20
130.8706016869764
 30
0.0
 11
269.3817514802848
 21
130.8706016869764
 31
0.0
  0
LINE
  5
15E5
330
2
100
AcDbEntity
  8
0
100
AcDbLine
 10
310.4677514802848
 20
144.1421016869764
 30
0.0
 11
269.3817514802848
 21
144.1421016869764
 31
0.0
  0
LINE
  5
15E6
330
2
100
AcDbEntity
  8
0
100
AcDbLine
 10
310.4677514802848
 20
117.5991016869764
 30
0.0
 11
269.3817514802848
 21
117.5991016869764
 31
0.0
  0
LINE
  5
15E7
330
2
100
AcDbEntity
  8
0
100
AcDbLine
 10
279.6532514802848
 20
157.4136016869764
 30
0.0
 11
279.6532514802848
 21
104.3276016869764
 31
0.0
  0
LINE
  5
15E8
330
2
100
AcDbEntity
  8
0
100
AcDbLine
 10
289.9247514802848
 20
157.4136016869764
 30
0.0
 11
289.9247514802848
 21
104.3276016869764
 31
0.0
  0
LINE
  5
15E9
330
2
100
AcDbEntity
  8
0
100
AcDbLine
 10
300.1962514802848
 20
97.41360168697645
 30
0.0
 11
300.1962514802848
 21
74.32760168697644
 31
0.0
  0
LINE
  5
15EA
330
2
100
AcDbEntity
  8
0
100
AcDbLine
 10
300.1962514802848
 20
157.4136016869764
 30
0.0
 11
300.1962514802848
 21
104.3276016869764
 31
0.0
  0
LINE
  5
15EB
330
2
100
AcDbEntity
  8
0
100
AcDbLine
 10
348.1532514802848
 20
97.41360168697645
 30
0.0
 11
348.1532514802848
 21
74.32760168697644
 31
0.0
  0
LINE
  5
15EC
330
2
100
AcDbEntity
  8
0
100
AcDbLine
 10
334.8817514802848
 20
85.87060168697644
 30
0.0
 11
387.9677514802848
 21
85.87060168697644
 31
0.0
  0
LWPOLYLINE
  5
15ED
330
2
100
AcDbEntity
  8
0
100
AcDbPolyline
 90
        4
 70
     1
 43
0.0
 10
331.6747514802848
 20
71.12060168697644
 10
391.1747514802848
 20
71.12060168697644
 10
391.1747514802848
 20
100.6206016869764
 10
331.6747514802848
 20
100.6206016869764
  0
LWPOLYLINE
  5
15EE
330
2
100
AcDbEntity
  8
0
100
AcDbPolyline
 90
        4
 70
     1
 43
0.0
 10
334.8817514802848
 20
74.32760168697644
 10
387.9677514802848
 20
74.32760168697644
 10
387.9677514802848
 20
97.41360168697645
 10
334.8817514802848
 20
97.41360168697645
  0
LWPOLYLINE
  5
15EF
330
2
100
AcDbEntity
  8
0
100
AcDbPolyline
 90
        4
 70
     1
 43
0.0
 10
332.5327514802848
 20
71.97860168697639
 10
390.3167514802848
 20
71.97860168697639
 10
390.3167514802848
 20
99.7626016869765
 10
332.5327514802848
 20
99.7626016869765
  0
LINE
  5
15F0
330
2
100
AcDbEntity
  8
0
100
AcDbLine
 10
361.4247514802848
 20
97.41360168697645
 30
0.0
 11
361.4247514802848
 21
74.32760168697644
 31
0.0
  0
LINE
  5
15F1
330
2
100
AcDbEntity
  8
0
  6
HIDDEN
100
AcDbLine
 10
332.5327514802848
 20
71.97860168697639
 30
0.0
 11
361.4247514802848
 21
99.7626016869765
 31
0.0
  0
LINE
  5
15F2
330
2
100
AcDbEntity
  8
0
  6
HIDDEN
100
AcDbLine
 10
361.4247514802848
 20
99.7626016869765
 30
0.0
 11
390.3167514802848
 21
71.97860168697639
 31
0.0
  0
LWPOLYLINE
  5
15F3
330
2
100
AcDbEntity
  8
0
100
AcDbPolyline
 90
        4
 70
     1
 43
0.0
 10
331.6747514802848
 20
101.1206016869764
 10
391.1747514802848
 20
101.1206016869764
 10
391.1747514802848
 20
160.6206016869764
 10
331.6747514802848
 20
160.6206016869764
  0
LWPOLYLINE
  5
15F4
330
2
100
AcDbEntity
  8
0
100
AcDbPolyline
 90
        4
 70
     1
 43
0.0
 10
334.8817514802848
 20
104.3276016869764
 10
387.9677514802848
 20
104.3276016869764
 10
387.9677514802848
 20
157.4136016869764
 10
334.8817514802848
 20
157.4136016869764
  0
LWPOLYLINE
  5
15F5
330
2
100
AcDbEntity
  8
0
100
AcDbPolyline
 90
        4
 70
     1
 43
0.0
 10
332.5327514802848
 20
101.9786016869764
 10
390.3167514802848
 20
101.9786016869764
 10
390.3167514802848
 20
159.7626016869765
 10
332.5327514802848
 20
159.7626016869765
  0
LINE
  5
15F6
330
2
100
AcDbEntity
  8
0
100
AcDbLine
 10
331.6747514802848
 20
101.1206016869764
 30
0.0
 11
331.6747514802848
 21
100.6206016869764
 31
0.0
  0
LINE
  5
15F7
330
2
100
AcDbEntity
  8
0
100
AcDbLine
 10
391.1747514802848
 20
101.1206016869764
 30
0.0
 11
391.1747514802848
 21
100.6206016869764
 31
0.0
  0
LINE
  5
15F8
330
2
100
AcDbEntity
  8
0
100
AcDbLine
 10
387.9677514802848
 20
130.8706016869764
 30
0.0
 11
334.8817514802848
 21
130.8706016869764
 31
0.0
  0
LINE
  5
15F9
330
2
100
AcDbEntity
  8
0
100
AcDbLine
 10
387.9677514802848
 20
144.1421016869764
 30
0.0
 11
334.8817514802848
 21
144.1421016869764
 31
0.0
  0
LINE
  5
15FA
330
2
100
AcDbEntity
  8
0
100
AcDbLine
 10
387.9677514802848
 20
117.5991016869764
 30
0.0
 11
334.8817514802848
 21
117.5991016869764
 31
0.0
  0
LINE
  5
15FB
330
2
100
AcDbEntity
  8
0
100
AcDbLine
 10
348.1532514802848
 20
157.4136016869764
 30
0.0
 11
348.1532514802848
 21
104.3276016869764
 31
0.0
  0
LINE
  5
15FC
330
2
100
AcDbEntity
  8
0
100
AcDbLine
 10
361.4247514802848
 20
157.4136016869764
 30
0.0
 11
361.4247514802848
 21
104.3276016869764
 31
0.0
  0
LINE
  5
15FD
330
2
100
AcDbEntity
  8
0
100
AcDbLine
 10
374.6962514802848
 20
97.41360168697645
 30
0.0
 11
374.6962514802848
 21
74.32760168697644
 31
0.0
  0
LINE
  5
15FE
330
2
100
AcDbEntity
  8
0
100
AcDbLine
 10
374.6962514802848
 20
157.4136016869764
 30
0.0
 11
374.6962514802848
 21
104.3276016869764
 31
0.0
  0
LWPOLYLINE
  5
15FF
330
2
100
AcDbEntity
  8
0
100
AcDbPolyline
 90
        4
 70
     1
 43
0.0
 10
-0.0000080392783275
 20
-0.0000054207412177
 10
819.9999919607217
 20
-0.0000054207412177
 10
819.9999919607219
 20
1069.999994579259
 10
-0.0000080392781001
 20
1069.999994579259
  0
LWPOLYLINE
  5
1600
330
2
100
AcDbEntity
  8
0
100
AcDbPolyline
 90
        2
 70
     0
 43
2.25
 10
35.17475148028484
 20
1016.734151366074
 10
784.825232441159
 20
1016.734151366074
  0
MTEXT
  5
1601
330
2
100
AcDbEntity
  8
0
100
AcDbMText
 10
34.39602672332171
 20
1043.070724838786
 30
0.0
 40
18.0
 41
190.4856753069578
 71
     1
 72
     5
  1
\A1;Visions{\H0.46667x;\S^ ®;}
  7
ARIAL
  0
MTEXT
  5
1602
102
{ACAD_XDICTIONARY
360
168F
102
}
330
2
100
AcDbEntity
  8
0
100
AcDbMText
 10
784.64916881877
 20
1043.070724838786
 30
0.0
 40
18.0
 41
223.600272851296
 71
     3
 72
     5
  1
Awning Windows
  7
ARIAL
  0
MTEXT
  5
1604
102
{ACAD_XDICTIONARY
360
1692
102
}
330
2
100
AcDbEntity
  8
0
100
AcDbMText
 10
782.8318442336133
 20
1010.185030572668
 30
0.0
 40
12.0
 41
124.8622100954979
 71
     3
 72
     5
  1
Elevation Details
  7
ARIAL
  0
MTEXT
  5
1606
330
2
100
AcDbEntity
  8
0
100
AcDbMText
 10
35.38258095646438
 20
1010.185030572668
 30
0.0
 40
12.0
 41
137.0559565265094
 71
     1
 72
     5
  1
\A1;3500 Series
  7
ARIAL
  0
LWPOLYLINE
  5
1607
330
2
100
AcDbEntity
  8
0
100
AcDbPolyline
 90
        2
 70
     0
 43
1.125
 10
35.17475148028461
 20
38.06830587845252
 10
784.8252324411587
 20
38.06830587845252
  0
MTEXT
  5
1608
102
{ACAD_XDICTIONARY
360
1695
102
}
330
2
100
AcDbEntity
  8
0
100
AcDbMText
 10
35.17475148028461
 20
29.99649648877858
 30
0.0
 40
7.425000000000001
 41
111.8358969986357
 71
     1
 72
     5
  1
www.visionswindows.com
  7
ARIAL
  0
MTEXT
  5
160A
102
{ACAD_XDICTIONARY
360
1698
102
}
330
2
100
AcDbEntity
  8
0
100
AcDbMText
 10
409.9999919607217
 20
30.19399619077285
 30
0.0
 40
7.425000000000001
 41
156.2288881309687
 71
     2
 72
     5
  1
Visions Windows & Doors
  7
ARIAL
  0
MTEXT
  5
160C
102
{ACAD_XDICTIONARY
360
169B
102
}
330
2
100
AcDbEntity
  8
0
100
AcDbMText
 10
784.8252324411587
 20
29.81736329121031
 30
0.0
 40
7.425000000000001
 41
50.1668656207367
 71
     3
 72
     5
  1
REV 5/17
  7
ARIAL
  0
VIEWPORT
  5
4A0
102
{ACAD_XDICTIONARY
360
4A1
102
}
330
18
100
AcDbEntity
 67
     1
  8
0
100
AcDbViewport
 10
4.134078880766063
 20
5.382972624461007
 30
0.0
 40
27.78601116238844
 41
10.43966339139243
 68
     1
 69
     1
1001
ACAD
1000
MVIEW
1002
{
1070
    16
1010
0.0
1020
0.0
1030
0.0
1010
0.0
1020
0.0
1030
1.0
1040
0.0
1040
10.43966339139243
1040
4.134078880766063
1040
5.382972624461007
1040
50.0
1040
0.0
1040
0.0
1070
     0
1070
  2000
1070
     0
1070
     1
1070
     0
1070
     0
1070
     0
1070
     0
1040
0.0
1040
0.0
1040
0.0
1040
0.5
1040
0.5
1040
0.5
1040
0.5
1070
     0
1002
{
1002
}
1002
}
  0
VIEWPORT
  5
4AC
102
{ACAD_XDICTIONARY
360
4AD
102
}
330
18
100
AcDbEntity
 67
     1
  8
0
100
AcDbViewport
 10
4.133974455442741
 20
5.383070628332701
 30
0.0
 40
7.934029685367956
 41
10.35294117480941
 68
     2
 69
     2
1001
ACAD
1000
MVIEW
1002
{
1070
    16
1010
94.84804972245233
1020
18.17676013218968
1030
0.0
1010
0.0
1020
0.0
1030
10.36550459200838
1040
0.0
1040
1070.0
1040
315.1519422382696
1040
516.8232344470691
1040
50.0
1040
0.0
1040
0.0
1070
     0
1070
  2000
1070
     0
1070
     1
1070
     0
1070
     0
1070
     0
1070
     0
1040
0.0
1040
0.0
1040
0.0
1040
1.0
1040
1.0
1040
0.0
1040
0.0
1070
     0
1002
{
1002
}
1002
}
  0
ENDSEC
  0
SECTION
  2
OBJECTS
  0
DICTIONARY
  5
C
330
0
100
AcDbDictionary
  3
ACAD_CIP_PREVIOUS_PRODUCT_INFO
350
496
  3
ACAD_COLOR
350
3A
  3
ACAD_DETAILVIEWSTYLE
350
490
  3
ACAD_GROUP
350
35
  3
ACAD_LAYOUT
350
14
  3
ACAD_MATERIAL
350
E
  3
ACAD_MLEADERSTYLE
350
3D
  3
ACAD_MLINESTYLE
350
36
  3
ACAD_PLOTSETTINGS
350
37
  3
ACAD_SCALELIST
350
3B
  3
ACAD_SECTIONVIEWSTYLE
350
48E
  3
ACAD_VISUALSTYLE
350
2D
  3
ACDB_RECOMPOSE_DATA
350
16A4
  3
ACDBHEADERROUNDTRIPXREC
350
1669
  3
ACDBVARIABLEDICTIONARY
350
46B
  3
DWGPROPS
350
168E
  0
DICTIONARY
  5
2F
330
2A
100
AcDbDictionary
280
     1
  3
ACAD_XREC_ROUNDTRIP
360
169E
  0
DICTIONARY
  5
1D
330
1C
100
AcDbDictionary
280
     1
  3
ACAD_LAYERFILTERS
360
1E
  3
ACAD_LAYERSTATES
360
20
  0
DICTIONARY
  5
8
330
7
100
AcDbDictionary
280
     1
  3
ADSK_XREC_LAYER_RECONCILED
360
9
  0
DICTIONARY
  5
3
330
2
100
AcDbDictionary
280
     1
  3
ACAD_SORTENTS
360
456
  0
DICTIONARY
  5
168F
330
1602
100
AcDbDictionary
280
     1
  3
ACAD_MTEXT_2008_RT
360
1690
  3
ACAD_MTEXT_RT
360
1691
  0
DICTIONARY
  5
1692
330
1604
100
AcDbDictionary
280
     1
  3
ACAD_MTEXT_2008_RT
360
1693
  3
ACAD_MTEXT_RT
360
1694
  0
DICTIONARY
  5
1695
330
1608
100
AcDbDictionary
280
     1
  3
ACAD_MTEXT_2008_RT
360
1696
  3
ACAD_MTEXT_RT
360
1697
  0
DICTIONARY
  5
1698
330
160A
100
AcDbDictionary
280
     1
  3
ACAD_MTEXT_2008_RT
360
1699
  3
ACAD_MTEXT_RT
360
169A
  0
DICTIONARY
  5
169B
330
160C
100
AcDbDictionary
280
     1
  3
ACAD_MTEXT_2008_RT
360
169C
  3
ACAD_MTEXT_RT
360
169D
  0
DICTIONARY
  5
4A1
330
4A0
100
AcDbDictionary
280
     1
  3
ASDK_XREC_ANNOTATION_SCALE_INFO
360
4A2
  0
DICTIONARY
  5
4AD
330
4AC
100
AcDbDictionary
280
     1
  3
ASDK_XREC_ANNOTATION_SCALE_INFO
360
4AE
  0
XRECORD
  5
496
102
{ACAD_REACTORS
330
C
102
}
330
C
100
AcDbXrecord
300
ACD
300
2016
300
BDSPRM_F_S
  0
DICTIONARY
  5
3A
102
{ACAD_REACTORS
330
C
102
}
330
C
100
AcDbDictionary
  0
DICTIONARY
  5
490
102
{ACAD_REACTORS
330
C
102
}
330
C
100
AcDbDictionary
  3
IMPERIAL24
350
491
  0
DICTIONARY
  5
35
102
{ACAD_REACTORS
330
C
102
}
330
C
100
AcDbDictionary
  0
DICTIONARY
  5
14
102
{ACAD_REACTORS
330
C
102
}
330
C
100
AcDbDictionary
  0
DICTIONARY
  5
E
102
{ACAD_REACTORS
330
C
102
}
330
C
100
AcDbDictionary
  3
BYBLOCK
350
39
  3
BYLAYER
350
38
  3
GLOBAL
350
D
  0
DICTIONARY
  5
3D
102
{ACAD_REACTORS
330
C
102
}
330
C
100
AcDbDictionary
  3
STANDARD
350
48D
  0
DICTIONARY
  5
36
102
{ACAD_REACTORS
330
C
102
}
330
C
100
AcDbDictionary
  3
STANDARD
350
3E
  0
DICTIONARY
  5
37
102
{ACAD_REACTORS
330
C
102
}
330
C
100
AcDbDictionary
  0
DICTIONARY
  5
3B
102
{ACAD_REACTORS
330
C
102
}
330
C
100
AcDbDictionary
  3
A0
350
43
  3
A1
350
44
  3
A2
350
45
  3
A3
350
46
  3
A4
350
47
  3
A5
350
48
  3
A6
350
49
  3
A7
350
4A
  3
A8
350
4B
  3
A9
350
4C
  3
B0
350
4D
  3
B1
350
4E
  3
B2
350
4F
  3
B3
350
50
  3
B4
350
51
  3
B5
350
52
  3
B6
350
53
  0
DICTIONARY
  5
48E
102
{ACAD_REACTORS
330
C
102
}
330
C
100
AcDbDictionary
  3
IMPERIAL24
350
48F
  0
DICTIONARY
  5
2D
102
{ACAD_REACTORS
330
C
102
}
330
C
100
AcDbDictionary
  3
2DWIREFRAME
350
2C
  3
3DWIREFRAME
350
42
  3
BASIC
350
47B
  3
BRIGHTEN
350
480
  3
COLORCHANGE
350
484
  3
CONCEPTUAL
350
47E
  3
DIM
350
47F
  3
EDGECOLOROFF
350
48C
  3
FACEPATTERN
350
483
  3
FLAT
350
477
  3
FLATWITHEDGES
350
478
  3
GOURAUD
350
479
  3
GOURAUDWITHEDGES
350
47A
  3
HIDDEN
350
47D
  3
JITTEROFF
350
48A
  3
LINEPATTERN
350
482
  3
OVERHANGOFF
350
48B
  3
REALISTIC
350
41
  3
SHADED
350
489
  3
SHADED_WITH_EDGES
350
488
  3
SHADES_OF_GRAY
350
485
  3
SKETCHY
350
486
  3
THICKEN
350
481
  3
WIREFRAME
350
47C
  3
X-RAY
350
487
  0
XRECORD
  5
16A4
102
{ACAD_REACTORS
330
C
102
}
330
C
100
AcDbXrecord
 90
        1
330
160C
330
160A
330
1602
330
1608
330
1604
  0
DICTIONARY
  5
1669
102
{ACAD_REACTORS
330
C
102
}
330
C
100
AcDbDictionary
  3
CEPSNID
350
1673
  3
CEPSNTYPE
350
1672
  3
COLORDICT
350
168C
  3
DIMSTYLEDATA
350
1689
  3
FINGERPRINTGUID
350
1674
  3
HYPERLINKBASE
350
166C
  3
INSUNITS
350
1671
  3
LAYOUTDICT
350
166E
  3
LWETCUNION
350
1670
  3
MATERIALDICT
350
168D
  3
PLOTSETDICT
350
166F
  3
PSVPSCALE
350
1676
  3
PUCSBASE
350
1679
  3
PUCSORGBACK
350
167F
  3
PUCSORGBOTTOM
350
167B
  3
PUCSORGFRONT
350
167E
  3
PUCSORGLEFT
350
167C
  3
PUCSORGRIGHT
350
167D
  3
PUCSORGTOP
350
167A
  3
PUCSORTHOREF
350
1677
  3
PUCSORTHOVIEW
350
1678
  3
STYLESHEET
350
166D
  3
TSTACKALIGN
350
166A
  3
TSTACKSIZE
350
166B
  3
UCSBASE
350
1682
  3
UCSORGBACK
350
1688
  3
UCSORGBOTTOM
350
1684
  3
UCSORGFRONT
350
1687
  3
UCSORGLEFT
350
1685
  3
UCSORGRIGHT
350
1686
  3
UCSORGTOP
350
1683
  3
UCSORTHOREF
350
1680
  3
UCSORTHOVIEW
350
1681
  3
VERSIONGUID
350
1675
  0
DICTIONARY
  5
46B
102
{ACAD_REACTORS
330
C
102
}
330
C
100
AcDbDictionary
  3
CANNOSCALE
350
471
  3
CMLEADERSTYLE
350
46D
  3
CTABLESTYLE
350
46C
  3
CVIEWDETAILSTYLE
350
46E
  3
CVIEWSECTIONSTYLE
350
46F
  3
DIMASSOC
350
168A
  3
HIDETEXT
350
168B
  3
LAYEREVAL
350
473
  3
LAYERNOTIFY
350
474
  3
LIGHTINGUNITS
350
472
  3
MSLTSCALE
350
470
  3
XCLIPFRAME
350
1668
  0
XRECORD
  5
168E
102
{ACAD_REACTORS
330
C
102
}
330
C
100
AcDbXrecord
  1
DWGPROPS COOKIE
  2

  3

  4

  6

  7

  8
25061
  9

300
=
301
=
302
=
303
=
304
=
305
=
306
=
307
=
308
=
309
=
 40
0.0
 41
2452346.839724537
 42
2457893.891557824
  1

 90
        0
  0
XRECORD
  5
169E
102
{ACAD_REACTORS
330
2F
102
}
330
2F
100
AcDbXrecord
102
VTR_0.000_0.000_1.000_1.000_VISUALSTYLE
340
2C
102
VTR_0.000_0.000_1.000_1.000_GRIDDISPLAY
 70
     3
102
VTR_0.000_0.000_1.000_1.000_GRIDMAJOR
 70
     5
102
VTR_0.000_0.000_1.000_1.000_DEFAULTLIGHTING
280
     1
102
VTR_0.000_0.000_1.000_1.000_DEFAULTLIGHTINGTYPE
 70
     1
102
VTR_0.000_0.000_1.000_1.000_BRIGHTNESS
141
0.0
102
VTR_0.000_0.000_1.000_1.000_CONTRAST
142
0.0
  0
DICTIONARY
  5
1E
102
{ACAD_REACTORS
330
1D
102
}
330
1D
100
AcDbDictionary
280
     1
  3
DIM
360
1F
  0
DICTIONARY
  5
20
102
{ACAD_REACTORS
330
1D
102
}
330
1D
100
AcDbDictionary
  0
ACAD_PROXY_OBJECT
  5
9
102
{ACAD_REACTORS
330
8
102
}
330
8
100
AcDbProxyObject
 90
      499
 91
      516
 93
       34
310
40C8804040
  0
SORTENTSTABLE
  5
456
102
{ACAD_REACTORS
330
3
102
}
330
3
100
AcDbSortentsTable
330
2
  0
XRECORD
  5
1690
102
{ACAD_REACTORS
330
168F
102
}
330
168F
100
AcDbXrecord
 40
10775.0
  1
\pxqr;Awning Windows
  0
XRECORD
  5
1691
102
{ACAD_REACTORS
330
168F
102
}
330
168F
100
AcDbXrecord
 40
10775.0
  1
Awning Windows
  0
XRECORD
  5
1693
102
{ACAD_REACTORS
330
1692
102
}
330
1692
100
AcDbXrecord
 40
15258.0
  1
\pxqr;Elevation Details
  0
XRECORD
  5
1694
102
{ACAD_REACTORS
330
1692
102
}
330
1692
100
AcDbXrecord
 40
15258.0
  1
Elevation Details
  0
XRECORD
  5
1696
102
{ACAD_REACTORS
330
1695
102
}
330
1695
100
AcDbXrecord
 40
26412.0
  1
\pxql;www.visionswindows.com
  0
XRECORD
  5
1697
102
{ACAD_REACTORS
330
1695
102
}
330
1695
100
AcDbXrecord
 40
26412.0
  1
www.visionswindows.com
  0
XRECORD
  5
1699
102
{ACAD_REACTORS
330
1698
102
}
330
1698
100
AcDbXrecord
 40
25144.0
  1
\pxqc;Visions Windows & Doors
  0
XRECORD
  5
169A
102
{ACAD_REACTORS
330
1698
102
}
330
1698
100
AcDbXrecord
 40
25144.0
  1
Visions Windows & Doors
  0
XRECORD
  5
169C
102
{ACAD_REACTORS
330
169B
102
}
330
169B
100
AcDbXrecord
 40
1936.0
  1
\pxqr;REV 5/17
  0
XRECORD
  5
169D
102
{ACAD_REACTORS
330
169B
102
}
330
169B
100
AcDbXrecord
 40
1936.0
  1
REV 5/17
  0
XRECORD
  5
4A2
102
{ACAD_REACTORS
330
4A1
102
}
330
4A1
100
AcDbXrecord
 90
        1
340
43
  0
XRECORD
  5
4AE
102
{ACAD_REACTORS
330
4AD
102
}
330
4AD
100
AcDbXrecord
 90
        1
340
43
  0
ACAD_PROXY_OBJECT
  5
491
102
{ACAD_REACTORS
330
490
102
}
102
{ACAD_XDICTIONARY
360
1661
102
}
330
490
100
AcDbProxyObject
 90
      499
 91
      514
 93
     1245
310
90A496D70657269616C3234481E5C0F42F5A8DC671FC056BD1B81E856B9F81E5C0F42F5A8DC671FA33E5C0F42F5A8DC671FA02000000000000741FA02AD129E2E20B1AB30B9102B34B2BBAA3CB832902E33101112BA3198911F1290129E2E20B1AB30B9102B34B2BBA232BA30B4B624B21F12AE2829A1A0A62290129E2E20B
310
1AB30B9102B34B2BBA9B1B0B632902E33101112B9B7111F12A33A33800
340
22
340
0
340
11
340
22
340
11
340
11
 94
        0
  0
MATERIAL
  5
39
102
{ACAD_REACTORS
330
E
102
}
102
{ACAD_XDICTIONARY
360
169F
102
}
330
E
100
AcDbMaterial
  1
BYBLOCK
  0
MATERIAL
  5
38
102
{ACAD_REACTORS
330
E
102
}
102
{ACAD_XDICTIONARY
360
16A1
102
}
330
E
100
AcDbMaterial
  1
BYLAYER
  0
MATERIAL
  5
D
102
{ACAD_REACTORS
330
E
102
}
102
{ACAD_XDICTIONARY
360
F
102
}
330
E
100
AcDbMaterial
  1
GLOBAL
  0
ACAD_PROXY_OBJECT
  5
48D
102
{ACAD_REACTORS
330
3D
102
}
330
3D
100
AcDbProxyObject
 90
      499
 91
      509
 93
      610
310
40901902A4063FBFFFFFE056BD1B81E855B9FC0AD7A3703D0AD73F4214DD185B99185C9900AD7A3703D0AC73F90141901A02B5E8DC0F42B1CFC02B5E8DC0F42B1CFE5764000000000000300FC0
340
26
340
0
340
22
340
0
 94
        0
1001
ACAD_MLEADERVER
1070
     2
  0
MLINESTYLE
  5
3E
102
{ACAD_REACTORS
330
36
102
}
330
36
100
AcDbMlineStyle
  2
STANDARD
 70
     0
  3

 62
   256
 51
90.0
 52
90.0
 71
     2
 49
0.5
 62
   256
  6
BYLAYER
 49
-0.5
 62
   256
  6
BYLAYER
  0
ACAD_PROXY_OBJECT
  5
43
102
{ACAD_REACTORS
330
3B
102
}
330
3B
100
AcDbProxyObject
 90
      499
 91
      508
 93
       41
310
903313A31580
  0
ACAD_PROXY_OBJECT
  5
44
102
{ACAD_REACTORS
330
3B
102
}
330
3B
100
AcDbProxyObject
 90
      499
 91
      508
 93
      257
310
90E312F31323822203D2031272D3022000000000000200FC000000000000284000
  0
ACAD_PROXY_OBJECT
  5
45
102
{ACAD_REACTORS
330
3B
102
}
330
3B
100
AcDbProxyObject
 90
      499
 91
      508
 93
      249
310
90D312F363422203D2031272D3022000000000000240FC000000000000284000
  0
ACAD_PROXY_OBJECT
  5
46
102
{ACAD_REACTORS
330
3B
102
}
330
3B
100
AcDbProxyObject
 90
      499
 91
      508
 93
      249
310
90D312F333222203D2031272D3022000000000000280FC000000000000284000
  0
ACAD_PROXY_OBJECT
  5
47
102
{ACAD_REACTORS
330
3B
102
}
330
3B
100
AcDbProxyObject
 90
      499
 91
      508
 93
      249
310
90D312F313622203D2031272D30220000000000002C0FC000000000000284000
  0
ACAD_PROXY_OBJECT
  5
48
102
{ACAD_REACTORS
330
3B
102
}
330
3B
100
AcDbProxyObject
 90
      499
 91
      508
 93
      249
310
90D332F333222203D2031272D30220000000000002E0FC000000000000284000
  0
ACAD_PROXY_OBJECT
  5
49
102
{ACAD_REACTORS
330
3B
102
}
330
3B
100
AcDbProxyObject
 90
      499
 91
      508
 93
      241
310
90C312F3822203D2031272D3022000000000000300FC000000000000284000
  0
ACAD_PROXY_OBJECT
  5
4A
102
{ACAD_REACTORS
330
3B
102
}
330
3B
100
AcDbProxyObject
 90
      499
 91
      508
 93
      249
310
90D332F313622203D2031272D3022000000000000320FC000000000000284000
  0
ACAD_PROXY_OBJECT
  5
4B
102
{ACAD_REACTORS
330
3B
102
}
330
3B
100
AcDbProxyObject
 90
      499
 91
      508
 93
      241
310
90C312F3422203D2031272D3022000000000000340FC000000000000284000
  0
ACAD_PROXY_OBJECT
  5
4C
102
{ACAD_REACTORS
330
3B
102
}
330
3B
100
AcDbProxyObject
 90
      499
 91
      508
 93
      241
310
90C332F3822203D2031272D3022000000000000360FC000000000000284000
  0
ACAD_PROXY_OBJECT
  5
4D
102
{ACAD_REACTORS
330
3B
102
}
330
3B
100
AcDbProxyObject
 90
      499
 91
      508
 93
      241
310
90C312F3222203D2031272D3022000000000000380FC000000000000284000
  0
ACAD_PROXY_OBJECT
  5
4E
102
{ACAD_REACTORS
330
3B
102
}
330
3B
100
AcDbProxyObject
 90
      499
 91
      508
 93
      241
310
90C332F3422203D2031272D30220000000000003A0FC000000000000284000
  0
ACAD_PROXY_OBJECT
  5
4F
102
{ACAD_REACTORS
330
3B
102
}
330
3B
100
AcDbProxyObject
 90
      499
 91
      508
 93
      161
310
90A3122203D2031272D30224000000000000284000
  0
ACAD_PROXY_OBJECT
  5
50
102
{ACAD_REACTORS
330
3B
102
}
330
3B
100
AcDbProxyObject
 90
      499
 91
      508
 93
      257
310
90E312D312F3222203D2031272D30220000000000003E0FC000000000000284000
  0
ACAD_PROXY_OBJECT
  5
51
102
{ACAD_REACTORS
330
3B
102
}
330
3B
100
AcDbProxyObject
 90
      499
 91
      508
 93
      225
310
90A3322203D2031272D302200000000000002100000000000000284000
  0
ACAD_PROXY_OBJECT
  5
52
102
{ACAD_REACTORS
330
3B
102
}
330
3B
100
AcDbProxyObject
 90
      499
 91
      508
 93
      225
310
90A3622203D2031272D302200000000000006100000000000000284000
  0
ACAD_PROXY_OBJECT
  5
53
102
{ACAD_REACTORS
330
3B
102
}
330
3B
100
AcDbProxyObject
 90
      499
 91
      508
 93
      249
310
90D31272D3022203D2031272D30220000000000000A100000000000000284000
  0
ACAD_PROXY_OBJECT
  5
48F
102
{ACAD_REACTORS
330
48E
102
}
102
{ACAD_XDICTIONARY
360
165F
102
}
330
48E
100
AcDbProxyObject
 90
      499
 91
      513
 93
     2271
310
90A496D70657269616C32344A765C0F42F5A8DC671FE5C0F42F5A8DC671FA209258409E5840A25840A65840B05840B45C0F42F5A8DC6F1FA33A659703D0BD6A3719C7E5C0F42F5A8DC671FE5C0F42F5A8DC671FA02000000000000741FA02BE129E2E20B1AB30B9102B34B2BBAA3CB832902E33101112BA3198911F1290129
310
E2E20B1AB30B9102B34B2BBA9B2B1BA34B7B729BA30B93A24B21F1296929E2E20B1AB30B9102B34B2BBA9B2B1BA34B7B722B73224B21F12AE2829A1A0A62290129E2E20B1AB30B9102B34B2BBA9B1B0B632902E33101112B9B7111F12E0080A0C829CA6926662C206056BD1B81E85639FA0320D0305A88A9F643F27E32B996
310
9C2960E81F87FA0718D4DE3E87E32B9969C2960E85F9E5129FC49EA5FA7E
340
22
340
0
340
0
340
11
340
11
340
22
 94
        0
  0
ACAD_PROXY_OBJECT
  5
2C
102
{ACAD_REACTORS
330
2D
102
}
330
2D
100
AcDbProxyObject
 90
      499
 91
      505
 93
      436
310
42CC9915DA5C99599C985B595049028333333333333E3BF0000000000000FB0107901411070040501600405405064090741402480A0340
1001
ACAD
1000
AcDbSavedByObjectVersion
1070
     0
  0
ACAD_PROXY_OBJECT
  5
42
102
{ACAD_REACTORS
330
2D
102
}
330
2D
100
AcDbProxyObject
 90
      499
 91
      505
 93
      436
310
42CCD915DA5C99599C985B595059028333333333333E3BF0000000000000FB0107901411070040501600405405064090741402480A0340
1001
ACAD
1000
AcDbSavedByObjectVersion
1070
     0
  0
ACAD_PROXY_OBJECT
  5
47B
102
{ACAD_REACTORS
330
2D
102
}
330
2D
100
AcDbProxyObject
 90
      499
 91
      505
 93
      388
310
4150985CDA58D07406404333333333333E3BF0000000000000FB0107A41107004050150841D405064090741402480A0350
1001
ACAD
1000
AcDbSavedByObjectVersion
1070
     0
  0
ACAD_PROXY_OBJECT
  5
480
102
{ACAD_REACTORS
330
2D
102
}
330
2D
100
AcDbProxyObject
 90
      499
 91
      505
 93
      428
310
42109C9A59DA1D195B90C409028333333333333E3BF0000000000000FB010790141107004050150841D405064090741402480A029950
1001
ACAD
1000
AcDbSavedByObjectVersion
1070
     0
  0
ACAD_PROXY_OBJECT
  5
484
102
{ACAD_REACTORS
330
2D
102
}
330
2D
100
AcDbProxyObject
 90
      499
 91
      505
 93
      452
310
42D0DBDB1BDC90DA185B99D95104090240C333333333333E3BF0000000000000FB0108901411070040501508421405064090741402480A0350
1001
ACAD
1000
AcDbSavedByObjectVersion
1070
     0
  0
ACAD_PROXY_OBJECT
  5
47E
102
{ACAD_REACTORS
330
2D
102
}
330
2D
100
AcDbProxyObject
 90
      499
 91
      505
 93
      500
310
4290DBDB98D95C1D1D585B10940D028333333333333E3BF0000000000000FB0107902409070040501000000000018199010841D405064090740C02480A0340
1001
ACAD
1000
AcDbSavedByObjectVersion
1070
     0
  0
ACAD_PROXY_OBJECT
  5
47F
102
{ACAD_REACTORS
330
2D
102
}
330
2D
100
AcDbProxyObject
 90
      499
 91
      505
 93
      412
310
40D11A5B50B409028333333333333E3BF0000000000000FB010790141107004050150841D405064090741402480A02677FFFFFD0
1001
ACAD
1000
AcDbSavedByObjectVersion
1070
     0
  0
ACAD_PROXY_OBJECT
  5
48C
102
{ACAD_REACTORS
330
2D
102
}
330
2D
100
AcDbProxyObject
 90
      499
 91
      505
 93
      452
310
43115919D950DBDB1BDC93D999916409028333333333333E3BF0000000000000FB010790141107004050150841D405064090741402480A0350
1001
ACAD
1000
AcDbSavedByObjectVersion
1070
     0
  0
ACAD_PROXY_OBJECT
  5
483
102
{ACAD_REACTORS
330
2D
102
}
330
2D
100
AcDbProxyObject
 90
      499
 91
      505
 93
      444
310
42D19858D95C185D1D195C9B90F409028333333333333E3BF0000000000000FB010790141107004050150841D405064090741402480A0350
1001
ACAD
1000
AcDbSavedByObjectVersion
1070
     0
  0
ACAD_PROXY_OBJECT
  5
477
102
{ACAD_REACTORS
330
2D
102
}
330
2D
100
AcDbProxyObject
 90
      499
 91
      505
 93
      380
310
41119B185D240901404333333333333E3BF0000000000000F9010740A907004050150841D405064090741402480A1B50
1001
ACAD
1000
AcDbSavedByObjectVersion
1070
     0
  0
ACAD_PROXY_OBJECT
  5
478
102
{ACAD_REACTORS
330
2D
102
}
330
2D
100
AcDbProxyObject
 90
      499
 91
      505
 93
      468
310
43519B185D15DA5D1A115919D95CD0140901404333333333333E3BF0000000000000F90107409019070040501600405405064090741402480A1B50
1001
ACAD
1000
AcDbSavedByObjectVersion
1070
     0
  0
ACAD_PROXY_OBJECT
  5
479
102
{ACAD_REACTORS
330
2D
102
}
330
2D
100
AcDbProxyObject
 90
      499
 91
      505
 93
      404
310
41D1DBDD5C985D5910240902404333333333333E3BF0000000000000F9010740A9070040501641D405064090741402480A1B50
1001
ACAD
1000
AcDbSavedByObjectVersion
1070
     0
  0
ACAD_PROXY_OBJECT
  5
47A
102
{ACAD_REACTORS
330
2D
102
}
330
2D
100
AcDbProxyObject
 90
      499
 91
      505
 93
      492
310
4411DBDD5C985D5915DA5D1A115919D95CD0340902404333333333333E3BF0000000000000F90107409019070040501600405405064090741402480A1B50
1001
ACAD
1000
AcDbSavedByObjectVersion
1070
     0
  0
ACAD_PROXY_OBJECT
  5
47D
102
{ACAD_REACTORS
330
2D
102
}
330
2D
100
AcDbProxyObject
 90
      499
 91
      505
 93
      476
310
41921A5919195B90640502408333333333333E3BF0000000000000FB01079024090700405020000000000001110200405405064090740C02480A0340
1001
ACAD
1000
AcDbSavedByObjectVersion
1070
     0
  0
ACAD_PROXY_OBJECT
  5
48A
102
{ACAD_REACTORS
330
2D
102
}
330
2D
100
AcDbProxyObject
 90
      499
 91
      505
 93
      428
310
42529A5D1D195C93D999914409028333333333333E3BF0000000000000FB010790141107004050150A41D405064090741402480A0350
1001
ACAD
1000
AcDbSavedByObjectVersion
1070
     0
  0
ACAD_PROXY_OBJECT
  5
482
102
{ACAD_REACTORS
330
2D
102
}
330
2D
100
AcDbProxyObject
 90
      499
 91
      505
 93
      444
310
42D31A5B995C185D1D195C9B90E409028333333333333E3BF0000000000000FB010790141107004050750841D405064090741402483A0350
1001
ACAD
1000
AcDbSavedByObjectVersion
1070
     0
  0
ACAD_PROXY_OBJECT
  5
48B
102
{ACAD_REACTORS
330
2D
102
}
330
2D
100
AcDbProxyObject
 90
      499
 91
      505
 93
      444
310
42D3DD995C9A185B99D3D999915409028333333333333E3BF0000000000000FB010790141107004050150941D405064090741402480A0350
1001
ACAD
1000
AcDbSavedByObjectVersion
1070
     0
  0
ACAD_PROXY_OBJECT
  5
41
102
{ACAD_REACTORS
330
2D
102
}
330
2D
100
AcDbProxyObject
 90
      499
 91
      505
 93
      420
310
425499585B1A5CDD1A58D08409028333333333333E3BF0000000000000FB01079019070040501508421405064090741402480A1B40
1001
ACAD
1000
AcDbSavedByObjectVersion
1070
     0
  0
ACAD_PROXY_OBJECT
  5
489
102
{ACAD_REACTORS
330
2D
102
}
330
2D
100
AcDbProxyObject
 90
      499
 91
      505
 93
      420
310
4194DA1859195911B40902404333333333333E3BF0000000000000F9010740A41107004050150800405405064090840C02480A0B40
1001
ACAD
1000
AcDbSavedByObjectVersion
1070
     0
  0
ACAD_PROXY_OBJECT
  5
488
102
{ACAD_REACTORS
330
2D
102
}
330
2D
100
AcDbProxyObject
 90
      499
 91
      505
 93
      516
310
4454DA18591959081DDA5D1A08195919D95CD1A40902404333333333333E3BF0000000000000F901074090142907004050250800405405064090740C02480A0B40
1001
ACAD
1000
AcDbSavedByObjectVersion
1070
     0
  0
ACAD_PROXY_OBJECT
  5
485
102
{ACAD_REACTORS
330
2D
102
}
330
2D
100
AcDbProxyObject
 90
      499
 91
      505
 93
      532
310
4394DA1859195CC81BD98811DC985E5174090240C333333333333E3BF0000000000000FB01079024090741D01000000000000111010841D405064090740C02480A0340
1001
ACAD
1000
AcDbSavedByObjectVersion
1070
     0
  0
ACAD_PROXY_OBJECT
  5
486
102
{ACAD_REACTORS
330
2D
102
}
330
2D
100
AcDbProxyObject
 90
      499
 91
      505
 93
      476
310
41D4DAD95D18DA1E51840502408333333333333E3BF0000000000000FB01079024090741D01000000000000111010B41D405064090741802480A0340
1001
ACAD
1000
AcDbSavedByObjectVersion
1070
     0
  0
ACAD_PROXY_OBJECT
  5
481
102
{ACAD_REACTORS
330
2D
102
}
330
2D
100
AcDbProxyObject
 90
      499
 91
      505
 93
      412
310
41D51A1A58DAD95B90D409028333333333333E3BF0000000000000FB010790141107004050150C41D405064090741402480A0350
1001
ACAD
1000
AcDbSavedByObjectVersion
1070
     0
  0
ACAD_PROXY_OBJECT
  5
47C
102
{ACAD_REACTORS
330
2D
102
}
330
2D
100
AcDbProxyObject
 90
      499
 91
      505
 93
      420
310
4255DA5C99599C985B595059028333333333333E3BF0000000000000FB0107901411070040501600405405064090740C02480A0340
1001
ACAD
1000
AcDbSavedByObjectVersion
1070
     0
  0
ACAD_PROXY_OBJECT
  5
487
102
{ACAD_REACTORS
330
2D
102
}
330
2D
100
AcDbProxyObject
 90
      499
 91
      505
 93
      404
310
41560B54985E51940902404000000000000E03F0000000000000FB010740501907004050150841D405064090740C02480A1B40
1001
ACAD
1000
AcDbSavedByObjectVersion
1070
     0
  0
XRECORD
  5
1673
102
{ACAD_REACTORS
330
1669
102
}
330
1669
100
AcDbXrecord
340
0
  0
XRECORD
  5
1672
102
{ACAD_REACTORS
330
1669
102
}
330
1669
100
AcDbXrecord
 90
        0
  0
XRECORD
  5
168C
102
{ACAD_REACTORS
330
1669
102
}
330
1669
100
AcDbXrecord
340
3A
  0
XRECORD
  5
1689
102
{ACAD_REACTORS
330
1669
102
}
330
1669
100
AcDbXrecord
1000
DSTYLE
1002
{
1070
    41
 40
1.0
1070
   271
 70
     3
1070
    44
 40
1.0
1070
    42
 40
1.0
1070
   147
 40
1.0
1070
   175
 70
     1
1070
    77
 70
     1
1070
   272
 70
     3
1070
    73
 70
     0
1070
    74
 70
     0
1070
   340
340
22
1070
   140
 40
2.0
1002
}
  0
XRECORD
  5
1674
102
{ACAD_REACTORS
330
1669
102
}
330
1669
100
AcDbXrecord
  1
{D4BA74A2-8FA3-416D-8060-EAFF071E93AF}
  0
XRECORD
  5
166C
102
{ACAD_REACTORS
330
1669
102
}
330
1669
100
AcDbXrecord
  1

  0
XRECORD
  5
1671
102
{ACAD_REACTORS
330
1669
102
}
330
1669
100
AcDbXrecord
 90
        0
  0
XRECORD
  5
166E
102
{ACAD_REACTORS
330
1669
102
}
330
1669
100
AcDbXrecord
340
14
  0
XRECORD
  5
1670
102
{ACAD_REACTORS
330
1669
102
}
330
1669
100
AcDbXrecord
 90
    10781
  0
XRECORD
  5
168D
102
{ACAD_REACTORS
330
1669
102
}
330
1669
100
AcDbXrecord
340
E
  0
XRECORD
  5
166F
102
{ACAD_REACTORS
330
1669
102
}
330
1669
100
AcDbXrecord
340
37
  0
XRECORD
  5
1676
102
{ACAD_REACTORS
330
1669
102
}
330
1669
100
AcDbXrecord
 40
0.0
  0
XRECORD
  5
1679
102
{ACAD_REACTORS
330
1669
102
}
330
1669
100
AcDbXrecord
340
0
  0
XRECORD
  5
167F
102
{ACAD_REACTORS
330
1669
102
}
330
1669
100
AcDbXrecord
 10
0.0
 20
0.0
 30
0.0
  0
XRECORD
  5
167B
102
{ACAD_REACTORS
330
1669
102
}
330
1669
100
AcDbXrecord
 10
0.0
 20
0.0
 30
0.0
  0
XRECORD
  5
167E
102
{ACAD_REACTORS
330
1669
102
}
330
1669
100
AcDbXrecord
 10
0.0
 20
0.0
 30
0.0
  0
XRECORD
  5
167C
102
{ACAD_REACTORS
330
1669
102
}
330
1669
100
AcDbXrecord
 10
0.0
 20
0.0
 30
0.0
  0
XRECORD
  5
167D
102
{ACAD_REACTORS
330
1669
102
}
330
1669
100
AcDbXrecord
 10
0.0
 20
0.0
 30
0.0
  0
XRECORD
  5
167A
102
{ACAD_REACTORS
330
1669
102
}
330
1669
100
AcDbXrecord
 10
0.0
 20
0.0
 30
0.0
  0
XRECORD
  5
1677
102
{ACAD_REACTORS
330
1669
102
}
330
1669
100
AcDbXrecord
340
0
  0
XRECORD
  5
1678
102
{ACAD_REACTORS
330
1669
102
}
330
1669
100
AcDbXrecord
 70
     0
  0
XRECORD
  5
166D
102
{ACAD_REACTORS
330
1669
102
}
330
1669
100
AcDbXrecord
  1

  0
XRECORD
  5
166A
102
{ACAD_REACTORS
330
1669
102
}
330
1669
100
AcDbXrecord
 90
        1
  0
XRECORD
  5
166B
102
{ACAD_REACTORS
330
1669
102
}
330
1669
100
AcDbXrecord
 90
       70
  0
XRECORD
  5
1682
102
{ACAD_REACTORS
330
1669
102
}
330
1669
100
AcDbXrecord
340
0
  0
XRECORD
  5
1688
102
{ACAD_REACTORS
330
1669
102
}
330
1669
100
AcDbXrecord
 10
0.0
 20
0.0
 30
0.0
  0
XRECORD
  5
1684
102
{ACAD_REACTORS
330
1669
102
}
330
1669
100
AcDbXrecord
 10
0.0
 20
0.0
 30
0.0
  0
XRECORD
  5
1687
102
{ACAD_REACTORS
330
1669
102
}
330
1669
100
AcDbXrecord
 10
0.0
 20
0.0
 30
0.0
  0
XRECORD
  5
1685
102
{ACAD_REACTORS
330
1669
102
}
330
1669
100
AcDbXrecord
 10
0.0
 20
0.0
 30
0.0
  0
XRECORD
  5
1686
102
{ACAD_REACTORS
330
1669
102
}
330
1669
100
AcDbXrecord
 10
0.0
 20
0.0
 30
0.0
  0
XRECORD
  5
1683
102
{ACAD_REACTORS
330
1669
102
}
330
1669
100
AcDbXrecord
 10
0.0
 20
0.0
 30
0.0
  0
XRECORD
  5
1680
102
{ACAD_REACTORS
330
1669
102
}
330
1669
100
AcDbXrecord
340
0
  0
XRECORD
  5
1681
102
{ACAD_REACTORS
330
1669
102
}
330
1669
100
AcDbXrecord
 70
     0
  0
XRECORD
  5
1675
102
{ACAD_REACTORS
330
1669
102
}
330
1669
100
AcDbXrecord
  1
{0BA63DC6-2F23-415A-9717-2612CC59A178}
  0
DICTIONARYVAR
  5
471
102
{ACAD_REACTORS
330
46B
102
}
330
46B
100
DictionaryVariables
280
     0
  1
1:1
  0
DICTIONARYVAR
  5
46D
102
{ACAD_REACTORS
330
46B
102
}
330
46B
100
DictionaryVariables
280
     0
  1
Standard
  0
DICTIONARYVAR
  5
46C
102
{ACAD_REACTORS
330
46B
102
}
330
46B
100
DictionaryVariables
280
     0
  1
Standard
  0
DICTIONARYVAR
  5
46E
102
{ACAD_REACTORS
330
46B
102
}
330
46B
100
DictionaryVariables
280
     0
  1
Imperial24
  0
DICTIONARYVAR
  5
46F
102
{ACAD_REACTORS
330
46B
102
}
330
46B
100
DictionaryVariables
280
     0
  1
Imperial24
  0
DICTIONARYVAR
  5
168A
102
{ACAD_REACTORS
330
46B
102
}
330
46B
100
DictionaryVariables
280
     0
  1
1
  0
DICTIONARYVAR
  5
168B
102
{ACAD_REACTORS
330
46B
102
}
330
46B
100
DictionaryVariables
280
     0
  1
1
  0
DICTIONARYVAR
  5
473
102
{ACAD_REACTORS
330
46B
102
}
330
46B
100
DictionaryVariables
280
     0
  1
1
  0
DICTIONARYVAR
  5
474
102
{ACAD_REACTORS
330
46B
102
}
330
46B
100
DictionaryVariables
280
     0
  1
15
  0
DICTIONARYVAR
  5
472
102
{ACAD_REACTORS
330
46B
102
}
330
46B
100
DictionaryVariables
280
     0
  1
0
  0
DICTIONARYVAR
  5
470
102
{ACAD_REACTORS
330
46B
102
}
330
46B
100
DictionaryVariables
280
     0
  1
0
  0
DICTIONARYVAR
  5
1668
102
{ACAD_REACTORS
330
46B
102
}
330
46B
100
DictionaryVariables
280
     0
  1
2
  0
XRECORD
  5
1F
102
{ACAD_REACTORS
330
1E
102
}
330
1E
100
AcDbXrecord
  1
dim
  1
dim*
  1
*
  1
*
 70
     0
  1
*
  1
*
  0
DICTIONARY
  5
1661
330
491
100
AcDbDictionary
280
     1
  0
DICTIONARY
  5
169F
330
39
100
AcDbDictionary
280
     1
  3
ACAD_XREC_ROUNDTRIP
360
16A0
  0
DICTIONARY
  5
16A1
330
38
100
AcDbDictionary
280
     1
  3
ACAD_XREC_ROUNDTRIP
360
16A2
  0
DICTIONARY
  5
F
330
D
100
AcDbDictionary
280
     1
  3
ACAD_XREC_ROUNDTRIP
360
16A3
  3
FBXASSET
360
10
  0
DICTIONARY
  5
165F
330
48F
100
AcDbDictionary
280
     1
  0
XRECORD
  5
16A0
102
{ACAD_REACTORS
330
169F
102
}
330
169F
100
AcDbXrecord
102
MATERIAL
148
0.0
149
0.0
149
0.0
 93
        0
 94
       63
282
     0
 72
     1
 77
     1
171
     1
175
     1
179
     1
273
     0
  0
XRECORD
  5
16A2
102
{ACAD_REACTORS
330
16A1
102
}
330
16A1
100
AcDbXrecord
102
MATERIAL
148
0.0
149
0.0
149
0.0
 93
        0
 94
       63
282
     0
 72
     1
 77
     1
171
     1
175
     1
179
     1
273
     0
  0
XRECORD
  5
16A3
102
{ACAD_REACTORS
330
F
102
}
330
F
100
AcDbXrecord
102
MATERIAL
148
0.0
149
0.0
149
0.0
 93
        0
 94
       63
282
     0
 72
     1
 77
     1
171
     1
175
     1
179
     1
273
     0
  0
XRECORD
  5
10
102
{ACAD_REACTORS
330
F
102
}
330
F
100
AcDbXrecord
 70
     1
 90
2070111275
 71
     1
  1
68348DED-216C-4C3D-A72A-82E82095AF24
311
504B03041400060808006668704674FFF767D9000000200100004F00000037383531464632432D343733312D343330332D413942412D4530413436433245413536432F4173736574446174612F446566696E6974696F6E4974657261746F7250726F706572746965732E62696E454EC94EC33010351C401C38F40FF801E378
311
49E2221032593871A1372E681A8636929354B523AE1CF96B18AB451DE9CD9BEDCDCC0F63ECF76814B233C237F96BE2671C71DF77AB6E8B03B08B54F1D31AFCE5A9774E614A6BFC84D9C7A47AE94387DEC388D31C16A7D19B0122AD037F9B445784FF42481B368763E9FE1721BD94183E76778F1002C60751DA5CB6ADAAB829
311
B5E446679ABBE593E34DE64C51A9C6E545255E314CF3BEC3200AAB8DAD9B9A2B5990A6D23577A572DCAAC6AA6C99BB561911B7F3B01EA1F72213C717DE77E346CAB77B11FB01FF00504B030414000608080066687046C81ADDBB01010000300200004500000037383531464632432D343733312D343330332D413942412D45
311
30413436433245413536432F4173736574446174612F496E7374616E636550726F706572746965732E62696EEB606060F80F0540260323103700495E20ED9E9A975A94991C9C9C919A9BA8021430B33036B1707175D135323473D635713676D175343772D4B53072B53032B03475743332614768046931363471713532B5D4
311
35353131D635313332D475727372D13534373670367376B67474B5042A03DBCBA019D37FE8ABC6157B20CD04146B0062181F4C03F940F0C11EA29A8141C08141002C0426541C106CAC2CA046088033B02A030AC2157C6006F21A8018AAF50194E6010A610250382264E08660284CD9E98021862280A91564B406929A0FF62C
311
401E28B6F88038B83CB1243943D7A928312F2535052403520F01FB73815C74603DF3E1FF8733ADD185B1F391150300504B03041400060808006668704688E57597CD3F0000904100006B00000037383531464632432D343733312D343330332D413942412D4530413436433245413536432F5265736F75726365732F363833
311
34384445442D323136432D344333442D413732412D3832453832303935414632342F7468756D626E61696C2F302F67656E657269635F706E67355B773CD4FF1FBF73E71C0E67EF7576C9DEF3EC995D46C6A1EC5046649CBDF79E192942562825CE965D8A868C2842C8DE9FDFD1F7E7F138F7078FCF6B3F5FCFD7EBFDFEC41B
311
196891913091804020321D6D7513FC77D8C5070EC3FFEE51B21F068154CC75D455CC028A3EA68992803810109FDDE5D5CEC5521B28A1B422BF80741695D5B529DA1C2D058AD2388BDA9F476F7C2CADC939304173DBF48A452BF8A700C0C70C3D121C1AA15A5270C22E2B9E28763651F7DA0D12CE11077B2ECD0D560B5E3DE2
311
368B1E65C5E1C87384A4CC5F2D9FB8BE39E9B77C753783A37998F5CEF1B4FEE553463245C9712270880DF339E0B882A6BA713D865F6F384C842D440934EF264F4A304F8DE4EEFA1E2BF5E2D91F5ADD9613D6E31DDB33ED31DB1D7916CAF091286EA3D31B9CFECB78BB0060245B943C4C040119FF780A74DD308BA9D0286786
311
74EB5504ECF284EE814DAED07440BAF649BE4B55DA2890F4D73E2D489A59EE54FDB0A85B59F2F52C4858A02705C4815A792B0C4A996A2023ECB195073E115E3E3647F64243A8338F2000BCB58DA5692C7E7C3D413F963FEDF3CF00FBB0F831A9D51360FECA43819F527B89FA260EB63C5DA676830AA3626A3693B23F1A17A0
311
DFFCE3EE164E31B5365EDF0C89EF64D8E38AB0BA9A1117D7C3A0EC44F44F4023095E80BA610DE336D0F99593A88BFC5306E72DF98F7FD132ED95878DF2964EA7E43071359FD83B2BDF9C6B5BDF768F0F3C0FC351199526F53D9460A34511F75D1B63E488178569472C91A94497807A3FD4A390C6558F26D416365C3656DE6E
311
769DA9D8FC73774E1709812842DD8EF96AED1960F79D21B395CDDFE6F92CB4EB962A4668C76990E2EF29798C8941D67DA50F4A5F947872460F1F6FDB794E8A29FD7AC0C0D6E0714339CE258FB17AE8535221E3464A10F29A0BE5EEECEFC5675926A89F49EB14E5711894F6586DB5754EB4D5DA9C6437EBA57DB97A24F8B8A8
311
DB295FFD73266CF57E82694DF5166DDF93573AFE9C9C5EB05F8FEF8E89E0A8917B0B3724DB7BEBB53252581EFC3E38166BA131A3A5B42FE2AD00A769BBFA4458D2DE7822F8C4F63D0B8E21B285AE13325F3410A435C648C9D91FDEB109E73CEDA7BC796961AF79175E1A3CE4C5E8B0D009B0C9E29EFD98BC8E97554E3D8D83
311
8424E270F7685226E5AC268E021EDE3522D583E8F20C0BDE2959EF5BBFEEDAB32FE9A3ED0E39F211A86AA9DEBFC68182EDED132AB8BB794442D2D7EA9F4D8BFF52BC4D55BB165124EE90A42D101E67BBBB292FFB4F66DE5BF2300E44546757DA7CEF8932BFC9F92A0707953491A55C5A5ACEDABD9FA1AEA01BAC3DC5A24E22
311
E7C47213493996EFBC369D086ED9397C9BA6C7F9855C7BD5E15BFC8C53DB3D2A4C5901A57ACD2FBDF4D1676E95338B2C2BCE65FDA4C64F5FEFDC7D9CA5AA1FCF11E193F2FDABF0F4916BF13FB916A224380E6462A9815F2300DC49CC4DF8D055CEF76462F4B7A7ACA7365C2707891370BC1D0AA6203C44CCAB47084FEC057F
311
27FFCD57F89B8B9852459798A675C66BD7CE572CAF71FF7E6D7ECF7BF62CAB7B3F1107DCD04DC55A3F9961700286141C94A4F771FEB2BCDA2DDEE0CB0BAE402FF1DB0100F8E475DFFFC074DDB4498AB7D186A7654DDB1CB680D703D47CEB4E72F8CB13D86A4AA68116E26387B93FD6738779B34FEDB8E517EDF2BAF28D9BE9
311
3A1D3A164320E07D42E514725C29515FF361754213EDE06B079A2E99EB1CA82A02019EADEEB87B9AF005BD04BBCECB14AACD6B24EFBE482194A97DD32400685FF1FEF1544D1B14EFB1E7F08E6D2CD2AF52DE757F35F5E62332EE88EA26417AD5C3E0E319D68F25414E6D672BD4522B278C57D18F0113921C71D96527E091F0
311
0CEB15AE23D24667369BD3CEFA10C7549D930890BA4366F4EBC55F01F746109F98ABCDD5A3EE06619C6AD78AB33E48E4C9BD21BF7478B385EC05C4F8987E2C1BFA0A60EBEDAA0AE0B015C2720ECE180FB6F2DEFBEB822D96338C9B63822183BBF52FB664A7AE57003AABCE512BF77E7E31BDA2E739AC4C131657DDFE5225E9
311
00FB56CC01CDE808FA4A9C9DA16AC679656BB64796283D89812B8F91136AE18EE5EBBAF47A73BE3C153EB5D4CD491B4BFB4FE690A4CF9ABA08C0D8AA64220C438C96EA6CA80B58FE5761E697B3A292EB9FBDA502FA863E49FE694ADDFFF9D62C520BDD1A22014147A0903A05B9B729F54272EF83931FEEC057BFF8C8055C27
311
9EAC5C0011804828734024F6CFA319C9CC6867C727184465CD9BB7ED386AFFD96B294A85E3802FAE47244602D8273615952B98C4F23F7EAE4463D9D638EEE374A20959E0FE519C4CFB0FBFE5DD80C2AA3F9DB961D1BDE57E67C9BB47B77FDD74EE3094F5DBBE3EBC1FBDB7393F5116263009E2EFE1AF9A221B2AE234C902BF
311
70E9F280ED23E73908361565964333A3F01D0B006AF32FB21AA1316744B489D5A198E85299241735BE559675130955C902A8ED761FC0DBE337A9F91919AF5CE32AF902ADF9AB2615E00E8A94586BA1A90839B61832FF1BFB76D2EFADE6DB1BA04CCAD3DA649E7E2A0219F592E22F2AD54847EEA8E42271011E9074F8F3DD9F
311
BA6CDF88FFC9FC7E811AD1CA8F4557CE4AFC7BBEDCF0114A48689F20A584520C74DA8127124B767E2FB91A6B186246727BE63C9445BAE02088D58B8EFDC0F1072407CD9B89A13F6303B4A928F593AD489B58E6869325790ADC406036C591729FE14021F94B7796BB11848D463536A092A26F077F94639F7CEEE2A724C66EC8
311
85F4A24F8B8A0AC321F8FD149BA529460FAA34E4663C02D41FDF80BCA222D42F0ABFF8490F4FA74C673807C2051D8E467B47B616072860069A9A303ABA9B319D58404461401B0A0F9BE5E1E151C14BC33B32ABE03DDE91708DFAEB15E7C0D593C86BB7D7EC17BE56E57975F077BFD5525F3A1A361D584A75E08CF29FC7B44B
311
2B3085014F3A5A14517377C3F6B8F37E59514C3B12F8AACDEDDA4DFC49BE5710101534CD6FB6DE15B50F11A09472AABA727F0C49D9CB906B158030065F48EB3625E010CEC1D511D0053474B11E6A4F01C0D6EF1BED3A944FDEC70E0DDCDC756C86545910E0DAE3BE3AA9A404574C2995CD5CAF9549226BC94B4F4F0F5F9086
311
F418F6B32346464610D8BC7391D3C3A3CCF04CFC1FB2A3A3170E369511868F14EEA4E5E438CC73DB1F3248AA94B6B2FF33B222FF3D1E7BF146CAD229770158063BCE4F5391964DF62F7E52A7BE0EEA829C9E13C4C147D6F93FE59E111DAB5E4594D6F3CD1AD375EE039930EFE5AF2BB2D41C83C7DABD8C659BAFBE8FAB392C
311
A634F3D15C1D945DB4588D2B0824A4EC928AAC565557CA2F0DAA588CA5BE30B3A8004F7BF005E96CBF891D7F18112A3619FDF530DC8AA64954258E1811789B5189B49B4EB53F5F89F7D37523894F3EB57B373763C91E502F52CC99EB7BDDF933FC324C4FFC2561DFFA7339FAFDD0A4BFBE6D3A8FF9ED1FC498981398646024
311
58968913181918F719CCF5A68B2EE9C1FF050E34E63107003B8120FA982C21B30A874E4F5E4B38D5A8290C4B8D9BE48A0BE31EA995BDC37AC6DE90BA17D259DEF53605D55922FEB1855D915B659FBEB350EE0DFB2F9F766E1C84CC8964B75D08667445EAB966015F63A18A9E0A325C1B3DC628C0D3CB60F767FA93CC65F254
311
58BD23C3B312716E5F40E5858AC06EBA9AB14F95DB99147B832069201541D09A0D856E12C629CF32683760EE855537D1901988D5EBC156676C7DD51D7207CF3267AF1D76C2AD867315E44618015313A98B19941C696FED3461CAA9B5415F918556D7802EDACEFD6B2E45853A9735DFC9DBF7E440F9319F8B6805A973BCCDC7
311
6C069A9144E51F187EDCC12FC31B5DEAAF0A76137199B106EC84ADA6B6EE697D4E6A96E007417F4E880E8B1E89B4BCE9D81EF611E2ED8F0C1A6C25F620FAFAAB656A7C42D464880E8AFAB0E0FC8EA38CA9A8AEEAEE3E4648BA4680270A89743CDD3E6C6CBF34B7B640EFA285ABC7EA0A1E28F3CC963D114A80123EE66D0AF7
311
D5380EB41909B605AB4765B709B808590458157E69BA1378FEC4B48CAF6A730E3BE3C5EF2DD1A5EAF94B1DDE50CEB55DDFD7EE9A16747FA4B223359FB1FCC69E1194892BABB93A1D5C4E807AC0EA2E30180811E77A2291F6E7F7FAA5E0F60215BC6024E48DE436C511F0628B8CA189982D4D83CCA17D305A7E923C37941CFD
311
FDCD93ACAF735EF5F0E61BBD3E6C41A59B242790D3A3BAC7064DCD89AA2E37214EC839820949D5CAA31E240D2948E48F690298974A96BA9A8432BC90F5071D6537C9666EA4564796B7AFFFA548077BEEA75F63083435074BA182F3699557397F71548383FDA8CA34D99B981E72835ECDA5DDDC151315173D05A21F651AAF85
311
24E88209E2E7A737ED1045800CE3390050BCFB8BE588DF111617874C62575039CA588EEFDEFEFE319B739DE2EDC147092A262611E159650E787917885EF08F1F51B8F2D8A71D60B58B190FEF9541A1BE94BC19FEA50784DA1419FE4B0FB51B8D36B5FF8E1286FD8AF42B91E59A5F1CC4D60174E764045FD8C57B18209B217F
311
89A62252BD20BE0E63E12B8E8F029FE19E0E8D0870F58721A557082250D5424F7909369376E41666C0EE77CD87CB283F661D5FB6D0DA023CB67320A20DC7BE661E9E1BFE5463085C557DA1FF9BE835733766C3D139F2CF9E2208873AD0EB4814DE9E6BF2CAF81614D4D43906ED1C05A3265CABBFE192770FC2F64F940CB6B1
311
7B5F166F133C9AEEAD2641807C3E69515171DD74C4A85311513D6EC9530B3B601B6BA3EBFF3B5C3D2F7D69765141E345F75433953D013ADDF8F6AA7DC3F4A7563FE5C7D367937E2900D7EAD0F9FC9A4A1A9B5BDF1FEF08532660C01C5D6DE22199AA774383E306DAB87E301ABB7D213887F9869D4942D0D71E94B27EDF216A
311
318BD488D45DF84529EF575AF3C3938C0AAA0215B01994153E2054A0B894DA5C784980633AAD48576957CF4AEAEAFADC7C587368551C73DBE1E57C58AC713303A8BFC258BD04B51724459FF9E24C03A81E0E0679CEB9B348C0DC998FEB9C6D6EFA77D247CC8F92D3848599ED89A23218D0636465AD1CEEB7DC140D7426F834
311
91C4E8E8281C2FB35240918FFECE880CA2A42D70E8B20B34DF5221C7DB0CF90ECCB9C745B37A47E9B716FF7A97B7A252C1F3814DC7B1E1A7F72B8751D524EF7CAE45B0C73B3BE7D08ED39781B380DDFC9AA4A4749C9493DB5BAD07A6EA6C092FBD0E85DB004DF06B8C9D3089C5320187E4CE1846158C7EA7DDAE8AD9AFFF21
311
AA3A1026BB06A259845E8232DEE62811A4DA9CEAB3A4887320B76E2AE5615EAB7BDF738CBDD01F1E64064BC13D9EC53576751CA8CACD58B3CEB0E6CA585BD089B2A59B9FC101403387AADBDBE70586B93D64BF3AD4453EF9C3B6A93817E8346991798601344F79A83C51F3D50F7BF2683A3605F51A72449489E0EE6169C749
311
C60B1035651103AEE24D24E51A759C840DD3FC6504DA6FE107510E447B43461C79D22970B75DE5E1BD3007D1AFC619A4A4A69B5626AF5E9B8374E20677F77E2F8E73DF868E8BEC7EBA7B6A75EEF7205E1AB9486CB642741D6E03FF13FCCEDB1C4AC129886268B01CDF4B124AF797CF784F3C6DEC97A17D4B558070A0F1C04D
311
A4FF9BDBF34159AEFE958479824B3F58EBD1E19088A2AFDE501B6F2052368A3FD0E650A179EFAB1561E1D27527077136E652676C3670F42DCB3352F48F6BC86D2C3B0051727E41A0A4DC6CE2BE9D47F5CAA2935A3C0539AF080665997194ABECD723B08129CC5B6B21D2E7D54CD4D12610E7E9FB8306771A89576C7A982002
311
775ED44F3F744CF21EEBB27A631671D921938AAEE3EB0D19CD1E083727F607823E817BF599DCED5394E37EEBC2E88782E638920CA641EF74D4CDFCDEF06F4278ECB18E31E7E9876F2D783C8BF429C75395F57E98C2B495A3DA077EB3AC3C158608B6B57FE3EA48484D9A480096FCEE0DE880950E7E5A5714131C5C41AAA29F
311
D19AE81AC145FA1B9E85C7169A5AB837B213493DF7E9AA4B5FBF9CDEB36EBD21EF1181B7CF7366AB2A951D01E37AF4EB835D1BE8C117CFBE7625D2EBCDB0B20C5A4B45CED0BCDE3EE8DA9DA78C2E21DEAAFFD1197E463C33CC6A80FB785669B856EFF7A8CCCA2841B5A5369173320B1170C368B2748D81062EA0296E5E2D95
311
D7667A4A46D98A6FF475C76AAB0A8C8D45E226FAFC9FE0133EA9F60111F99CA81ACE03A1D14C89E8B0D69079C91464FA1D99E651D0EAF606F345C42A8A1AA9BA391031582B96D5B4176A77AADB01F12FD298A75DEEBB2C82F0B8650E880722F8DDD90C56A7A058E5FDEF1AC93545BA27367C76F5D8F9690CB6F8DAE141EDD7
311
971F0FB548A2AE435F224D6E5954CA155512F7332029D5A1230854B79F258EC5FFDB09F5F6343A8EB193229B7F7E79B3E48F8E183860B38C8269D1B53738FF1E0BACF6AADA6D4869E9DE708E79B5DADCC09B1BC76F649731CFAF59A83FD8BAE4C749D66FA87A3810D4D62FFE826FA400C0F325D2BC0F3CA35F5847B82A2ACC
311
7961745C823E4D863D54460AF792CE6F79B5C7A33B25C3AEA6CDE15A919B6367D781E9D44F61BF828672594A3E1D9EDD6DF179A81F27EAC05B936575D73E05C209DDD2115CFB705DF9BBF3C911589B3640735E9E618FC9C36A7326C82B2205E244C55D56FDB9D5DC93CE958D4BF8174D2B3DA54CB3C09F2C2A6DFF73D23B21
311
97355761AD421EC581284A7EF8DE2CE3497C0C804D49B41DFD6A7360844E5BEFFB495CFCDB97A4595911CDBA623274CE852B5E278AF0BEB1770E9D37CD977B2766A7DED0E94B840E1E95E8C77DE5CB6354AF7871427C28ADBEEF7BA0A28E19DE9ACD75F379FE373EAE6DDDAE3834692F9C2B03B4FCA8FCA9ABE8EEEBEBB725
311
B88A7C90941E850682CA04061A7DF0CE82ED49BFAFFD42C309818FAE14755CAAE78B0F73243ECCCAD7DF58FCB9CDFAE7A4D3E6671A613639130D056C8383C8F4FCF4808C331E544DD26E4755D09EA05253B3049A1E32587CC25D72E073E2CD96D04A71BBCB0038FEC3F53D254199C3CDC67CD66640269431860225392B2CB3
311
ECD0B4498AAE78BA1994246AE1EE78F2EDFB79F6C6CB6B5E279C4D373FBC21CB2698C9ACBBEB6A4BB6B39E16AB0E421CCBFC7654D81ED86022F9BB522146F9F4772E2D0E4FA70120C95A85A417BF5078B232F4754363EB1750B2AC2148EB46B1EA72AD9B4D23ADCBC589D70106C3EC2ABEEED84DFE28E718C6C83502C28E9F
311
DD3B09DA0A6F6F7B72B706A31C9E2A331EE70DA56A083D2177BFD63C55B11D8D949FAFCF90B23A1E24B9B5018B9A17E99F2890EC302F330FE7936E2C23F0D237EC8916F5166AB84B62A21BB0B950146962D754F92CC2C8877BED8FC7B7B25726DD19545392570B3A2C66B58F027BEF412E552D12A588C4A3CC5C3193FCB348
311
5EFFF700D0B9EEC077754A33DC1FB9E25AF814628F91DDFECB667D3F7690803F38D13F8AE39353523BB08FC6760144AFA2CE28236F65EDBB3D5F59A57D612B99E3D7E5F8A851666BF9B5A6658EFC96EEB37A378ABB0EB3FDDF1303AF32C41BD1C8560745D7BD81066B0D6313359CF488563D3BA3F8E2185D1FAA3EBA1397C9
311
D0E3DD232180A4DCADB6AF25DB3AC3CC26589C8239E66E81547BC7E2F328F9884764CA37EB5DBE390DFC03A5246B456A7C3684C4377D0EEF9A350680FA9A077E8B2957B489E09AB1AD41316944C2254B5984830F691C93CAA767EECF976FA5647538830B5E63236A6F0365C1E0F3E327F24FE35EDDBD7360B0F7374837409F
311
7A6311BECC12B7026D4FA1AE204FA3F5FE904B1F420C7A9044AE58E403E7C4848E7DA25DC9EDAC79DD756FAA26B9EA83ACE8A214A2612A22AFA19DAE7DBAC5F8CDE1292A485F98DAC731A29FE01A3966E96BCB9FB5A4C8830E1B9AF0C54B87FBE221A097036E5D28D1F869F810C06A9BB0AC0612F69AEBAF893C6E7AD59460
311
208BAB3A6B09CA4F6BDDAB8CF0D1F84B72487498395A70DCD754796E271099A567A55CF242BBED64696378BB6CF25EF0FCDB589F3A82F1116D010A9AB9FA4358809EE0C973A2B4229BAA876A70B03AB49CBA7FBE71DB1832FFD32F9BF2C8E98075CACAFB36921235D0F552B6A67E94E094097A5D7DF681B40623DA535ADA7A
311
9AD8E9A62407D7C9A5AE51D62A17A83A23728DE86BB56115804D3F2675F2C6B87541A0FC497BF0CA86420F558C9859EBE9FAD62747E323E3AADC03FDCDDFE7407B09DA90B44E3185723C5381EAEF589765E2F7A099BA46695BAD60CEF3491B8A171F5F56444F7CE9455312C3498C74173AEA0214EC029833B34B650CBB5A55
311
08D5091665309642791708ECF27CF11DB3D797D6CFE474453BD4BFADB768094B2147814D81C7CBAF8228DCAF5564B5891F5EF6A860EB2E323CB82AB868D8EA048880D63B0DE5341F1B3D53297B928A11E15F25E5148990F710747C3509ED14909C552EBE3973246FCE55D00564D8310BC3EBC5085D08D806799B77D6C57FDF
311
5E55837F9E934F09C03C729271B64F12D0A9F9E938107CAF7BF1EC8CF1BB9B42363D33070F4CACB425E605DDB0A34A12BB936DE286B9887A4E2E558F0886498BFF49C311D96C277CF6A9FC0D75AD0ECC5226D7E0E3572012E56D7FDE4410CEC7A6D0F997F225A2055B8B92E3956E875AE4993CB3D4C9063AF98FD45E1BAB16
311
5640A43439A2C9181A7C355B297C0A0CCFFAE19B6FA3C2BA238A885FBC98B8F6DAF4B94B97304878DF4D8BFF6A4AEDF79E90ED4E68F00CD7299F4E0D83E35601AF0CBEF18C1E870E74758FA91F5131075004DB3CFCF09AE1DABC11957FD9808C92E8A678CE9DBE40DDA0E0D1D505AAFBCBA208232BFB6FB3704E8985E61ADE
311
53DE74152F5C7DE74B1DEDCD37DC3E8FB30D7EBA8B9EFFC3606BF90B8D438279CB7709FC7C00D327F41817EEA71CD9E49FE9C8C9A81C70915D9F0F15958EC5AA4C3BBFAF46986B90F188BDB24B89DE3C6F29EC3E6F66D84856EE96A35E657CA41B41EFD8DBFA16AD6E91439EA92B40B21C053249F51AE50EB0B24C770FFAF4
311
0DF12C8436366819C48E36547D4E7B72FE2BBF10828583057814A668BDF183F6B2E58DFB151103E56303E63D00F39C27C4661605DB644D19175D02E3F0241E8FC3458D17AAAADB117CE9EEA690D0DB01E634878C04C2C9310B69FCAB831151E3AD293BEF6E46B0ABCECB50F5939B39C613D41E81FAE8D34CAE3C4566B761D3
311
7185FE864AC32FCB71AEF39DAA5BAB88609BB980CD2F07A8F941653B529567726E2B2A58D079DD57E1E5E31426CF184A04D7B03B985F276D47406AF276FE32E3328BA866EB1FD39BEF57863A317634AA5FE467409B3873F5069EF0D71AF00AD189D17BA1974ECDB2D623E9E14086386A6AAB5807825C37B015BFE892AFD154
311
920EC437EB945D958E18622E1E0FE2FA06557CE4BB9BBD05A2D40E774DA2B65473791E314B7D6C886820B2FCFE4AA272B3B8B15E7344A145E8AF919B5454D89D36D413E87211186BF6F645E5EC94DCCE8E1C799022E4EC9BC86D7A0F2AFB1FC4B2CE48F84B3F49ECE65BAD24CADCC07EFF39AB06BE9E6B27A059938EA72088
311
38455383DDBCFCD967DDE4650EF92A14FF933C975DB20BD7FEEBC4487576485963D757D16340D9599FEB362F775F38CA4185A86F74B629C81B133644A3B18FD056E997E0734F9BE26D11C0AAFC669E2AC9FC41D281F8B2E1C35AE27BCE05F3DA295488096688719D974DF1B5D182DB7792288697F8763CFB43562C1CDEE11C
311
4AABD5C22B6E33F6F389CFC3477C5919DC0D533F8A7A1846B7ADB60ABDC26C43D0CFC8910B7C15EE22675BD02702ED39DB77A87A192CA7A543E6205B979B9F5A6B512A3CA799E198B2D5797C0AF8D1D872CA455D4D431A7879D4DD76110B5FF7F4176B54477A9EB5E4A5D11214FDA585F0382751D8E2582BA5D2075053298F
311
EB8F1537304E32CB22C2E2B693DC0A760B1DFCA751BDC445AFDCBB12820ED85F6D5298933C7EF1211E9E057684056CDA3FEF3BB6052355E162DF27C59E965A8DDB7F9437EB72CDDA3A090DE65A5B2F50326247B7EC67B73ACC7047FC9B353D6EE990F772207C6EC52B39DC2F3C0754821DAB559F7C1809C7D0DD5B0499D044
311
2E0A6E391B3D5DB46D11E731E6794EC77523FBDAA242ED67F9FA1FB684255671F63C9BCFE6E7E896D51001A6113EF2298BA494E0B0980D1FA5B9D60796554C02256B1E0345FB7C6186B6A19D2DCA270416262845FA4F42DB5D9B0A0B6F07FCA2E56C242522E001E0CEB734AF310FC8BFB57E38E03AACE93B3326A2197891E6
311
8452B26A6307FDABFEE0223D3C03C3C73D2D5BC054C8311F12004CAE488E5C29287F8156A2CAA4AD0D7BE6B97264E4139F437CE73ADF52E5134C52B819777C18B323A5924E4F67AFD13B1CDC3A61793A79FAF5C0CEB718E441071E797C6DCCB9EFCF7E4A1E9F3DF3C2F9C9E8294E9586868788C972857FB0556D7A26941A7E
311
EB9B580AD78EC40B85DC906B4120A563CA3B87797ED612D3B035962BB75F6515A393F4CB057F564CDF54F2E5A024514E6A1F901DB80C7E70B1FC05E356A7E72FABF4775B3E3FB8F70A2A8E7B6A94542BB304157978CCC999E707A29CC795E67A59CC546A5D47B368954CA7B6E75EC9E1F6FC73CE3B4F71F8CB1A6B15923D61
311
EAAEB14626AAA9D04A26EB9C66CD1BE86CA31A5D8703DE04CD1EBCE4F5CCB62F93909AD11E55799A781A956ED27D3E738F4538CB04ADABC7DAEF20BC35BA6A90BCC1DC61BA05F20D8832FFB9BC9B15E2DB838A0AFBB7E0C82A562127E0446894F427794C3037186F622BF24DE1B00AA10A23BFA47B2A180D6DA5AD6F7326FE
311
B8C100C2D7142EB2A0B2A9D1008A09BA343D70E054AB69E2A7EDB783CBD92537FAF4A44D1296AC2792729104B3276C276C951D0CF3CF3F1E6B017720A7B8505A5FF9589365979678C36F1BAF759EAF57C60F1FF5FE9DCF5F8E764FF25A2D06CF25117A8FED51884C13B2B750DB0E4F5E3D64124FCF11F0AD8F1CC3B3DA4B38
311
ED22BF1CB2585EE6BFEBBA63FBFD44F9537B9B37BDD6B358720F98A8125AED4349CCFEB0E135F19E208A04CA7E2B10711185D72E381F448036EF57C9F874E54A971CA37A639E986AC0226DC5AA00D5B14FEA9192234B3DE617814FC221C92F33F1D392F297731B567FD98FD91D989379AF567A65B8ADF177591DB90FBEA99B
311
F4ED11B16E50A0AB1DBF1156D034BBE04D69D08F939D8E92BF525A1DDAFF80ECBC95D8F45D3FDD289FD23F7D8B452F8EBB34EC082DEEE68E18EDDF072060FAD2AB1504DD4879BF67099FC58F6E9DEFBF645D16334A3E9A127C6F1AF6132CF287E433B43A0EE93812B4AA0B194E03EE3FF91EF9C6ED0074A2F6EB18A96A7C98
311
90B1FCDA1F2095E944DB911ED54C60DF16FB74C8CE9BDC7C54C4F14078CF73C2FFF1F1BBCCD7CF64F71407EA1683DBC410D226627F66E509060D5C0AFD611DE681D509DB8DD12FB1265B03C6F5C55FF4C30BD94187FF692B4F152982502F193098A789526A038AB529A52BC0DC4FB6285CBAC10A8B8DB75DCD9BDABBB221E2
311
7D1F8DA9F5EE5926A1C8AA9BA9BC09239C6A7F12914EA3B59EFF7AAEC3FFCCE56F1C5C2980AD072793527565E774F4631DB178CEEC691B1F367BEA0CF2907E1D6B854D527065979DDEF002D8B2ACEA7CE21AE297737EDE1D45B31233B73FEA35BCFDD0B09721FDBAF6432681F2FD10C3E9EFB246FD6E854B344ACC9D8A0EEF
311
876A7314B49B6A499FC650B099D650DBFEC7638ADFD245E2B7839DA5AC5F7D5623FC0ECEEC8653FC9B2BDD1AD4D00A566FBA7186DD3C9CD26512551637498CADB950FEC71ADB9A5524285DE328B8EC7EC75D2345AEC6A27C42AF6D9B92155315C80DBFCABBB7DA0FAE425C4FB896B15C9BFAC4FE67DF5A23D30C93DA4D8F36
311
FB15D100050DA6062E22AEC5F4DAC4F6FEEF97AE05DE63C6D38F9E068A20BC5E3B6BCD75320C5090924E7F93640A7735B1A43451C2D91EE62C6238B797349E59890AF3A520DF4A87095F3ABEC2E61F0593416CE46CDCBE0E00E2523FCCD04408588B5B6C9DB6459C786CE378770B54F51DA3A5E1DF2A3349BEAAC234A6CF89
311
93B598B3B25B4B113E353A4D750FA7534749430F3EBF2512E7EA3FD43C6AB9A1F765A58463B306721A15D224FAFE8C6F5E3432D57EE697DA0DD5A9D4866A8BCCAAA9DFF1F06047851408FEC060471D0E3EB86BFAF46E4B5E60311DC3E3CEA147C75CF971BE74689507154FF2D2E92F15CDB2B9182B11459FD8ACAC5A85F174
311
BC94A7F4EE4C4F5CAFA7C02E37BF0BC77B7DCD0C047BC316F562A01A441AFA7931CC84A28CB9F4AA367EB515778F29BFE61195FA671F4352E5E46E3A64773F1F76EE5EB36D7BCE9BCEAD837A4D77F8DB8C92AEEF6711920D7C7D0F76B0FD0EB7AB83724CD35BCA7D36DDDF5FBB7FF6F04A91F3E2BB3B8F1A43CD659639507F
311
F6331C5F697BCC782AE57D757A27D97F1AB9E0AEDB43F92F1B2AACDF5FEC8ADBAF9F814E2027003BA2F9E144B1938A7A04050AE5D953B82C45619165C813A10E76DD6906B3C16438064D14CDA713AEC420034613E1AC7241904A49FBF87409AFB1FCB9B72FE7933A87D8FBEDACECE4EDCF6A4FE9FB94D5DEB74FAB7CFEAE17
311
EE965DF980DCCA2D04134994F9A2E94D2265DA4FE6AA7B7AC15FACAC2B5ABBCD7DFF542C5314FDAB2E1B9D8B65220B8E2B638BE008E8DCA22678C820C5053664D15E89F2D735B51A84955E81A443545E9FF787BE0FA700A76D136C27DA179A7C6E8939E01BE756E19CB292798063D8B97F44E8A27BCF3A614FEB8BE974A718
311
E86F7EC99B53CA35FA24F61F2B07266684623A3D4CF073E511F3A10A8FDAFAF0078C577F4DF9D339FE7862E5FA47CF4344209E5BF76D783B1B48E152AD281B15FCB934DCDA49CEC5706B1EE8B460F435324A5CAD154725E21AB8044B75A557A79F6C807B9340AA3D92503E866F4274412926C8C504E4D5EF8C0E68DD0B0287
311
81A6B4054F11CF18941F101C57CCC796773ABC8DED9CD91FE5788806C05E548895354AEAC96546D55B0E94A59F148D061F42AA398D822CDECA4CDE79E13469BDCC44FDC990F366BA5978C15F97ED80CBFD73B0CD9B8B83A4F6845BDFBFAF034019473FB9A63BD55D3A4A7284757071574029A4D016DCCBE95DD679EF3C4880
311
BF169422F8C89B68A988D2B13793CAED4F74DE7486C72DC94DF46B8E93D8E02EFCB1FF9B3BA10C8AE7F653DF94F4AF466CDDCEF5776687F7C4C14B63E4EED1719DC2EC482D7DBCC7AE518CDE3D5FF86D39000EC3673C0044E1D308BF05F74D1B5F033A7D1BE7F74BC55BBE3E4A20F920946CA0271EB17BD2B80E5660ACB8A2
311
9A79F5E4BBA49D4D945B6EEF4A7EFEAA65E5555BBB57A7E15D2F83C69F30BBB978D2B39F1F26FC097424D39BB33CA3D87ABF64E307938B685BAD44F71556A30B7E712CA4FE600613C3E554B69ADE949A7CFE214DF1FFF05CB82151EC6FC31950239F94CF7AD39DC473F6EA356E5EC2C4EFA04383CEFE985A127484366FBEE3
311
C0EC4FEA363E4F6632AE781392FD45D67B63FB8DF70E82734F431FD3443172A0E30A83D60982D55FA6A2CF86DBA8382502ACC6CDEF3B907982EED1160E14863FA242F9757347E1544275CCDCF71ECD5F8621CBEA326B8BA884AD7F825781923E66971F04010D574C541D8427A438A37EEF8AF88240EED7362C953F5A81DE2D
311
56109CDE2524EA0F5D2F87308C0C47BD97AD605878AB8589E17CA83930CB5E0DCCD75853D68B1AB136594926DE426C367428E9334AFAFF90ECE221BB5DC9E5BB53D2CDEF954EAA9CD814F0E5725F1965DD458E5F8487683AD86B9D0076BE3EE91EB1CECC5331A67A3F79D8B27587C12EC2A6A70474749F27B4C0BBAFB94B34
311
189E88DC18964BE4121B9137FD516C7755356E50D6714E31ACD222621EBBCD1CFF81D87479056A9DA0E0B8EA19D24CF937DA89F78E8650CCBDC110AAB6C4E46DCBFD0446BA9E2060E81F314AC2031E88135E5476AC0160EF5C0DD2EEF1B8B5CB2D198BE9A554A9093B5F7D7E4B5407DDFCA1D9C152FD97F55BFFFDFE802954
311
DFEC8995B983E28AC92F1971E28F531DC407A1280EB125F64A72E617EFB27DFBCEDCDA2D6F2BDADA36873EE46B9BE1782998C63DA7182BC383FB6FD15DA472B175D7E8B4FC88F38D6E07FEAA3FA3CBB8F6B449ECF14D2175E5C5CCA3A42ABF24CA6C9395AF74535F4DDB38CB84F56614B0FD32D7E19CA5CF988DB4449C40E2
311
3DF2B16772594554579094450F56F253CD25EA7F77366FB1CFE79696C428BB64D5A41E986189427E5E4D7E2DAE3D5BB4972B3DC44EAABDDDD63A2264ECFA5C786EB0EE1FDC5BE34FA0F08376869FD1E61EA06CAE15191135445EE8F0394161C3266A596AA035572BB0C8876180D8B9C77D307DF9DCDF7365ABDA6F3A236643
311
6457A4DFC1F259666569A9E4A79C817BDD5610E5200FCE894A358EC72858D50EF67545DA81C6FACE3D457BAF70367E1E6BDD9A952FB4F56247F58F523B97E640246051A72F79BE42FFA0B3187F63097F91C48B868586F714B0EBD5A00A8412C1236E1298F60C72BE6C96B82B404CADAA304AE9F303176B14BA53FBC2D5E863
311
77E35542019E24D97B96A49B2C0E5006E7795954DEAF5DA58958839043C6C70BD3B1B33B6DC5C31316D8A6923F142E26F6711A2258AF977DDF1F970ECC4F1F2B434B96D81BEB6E89BF3BBB3C7C8CC80505070723D6D7D7D3C8CA27CA164A26024FED94B12A86031867241DA53D929636DA600F050BC40CE48B8BA03D692247
311
20DEE2ED2127390BDF5E6EA64527BBD4C4C63FA76BB801FEEC0E61218EC98A8A86CD8313781617877E66692839B9468CF4DB8E50A73986E558E309C0D6F676F921BE02F1185454DC75B111572FF9D27D85EA14C05AD7271225B391C4275659CA4A43759D0BA44639BE4C30A84DB7F67A41399FB95CBF923B1B1672ABC807C1
311
590557FB18D811983FA97F5E609516D62281D38B1281F68FC75528C35E4CD7DF0F7DBB5E5DD69C414EBEA2F4A5B241B996BA77AE6C772E367408C633EA3E438B68563EA8BE7667F3A4C4FDEEA52ABD78A2820F443B7914A15F180018D231E64519C56A12F6CA7C8DAE18F06F6B769DBF92329EF6A5D18FBCE600F36BD8E819
311
8DE5CDAA96181F3A756EBA5501CEE58F497EA4F418A2B82565B9BCC611713C0B708CCA1F398B78C5F7D03B3437CC18F13061F55C7BEDADD5ACB1DB0E36D3CE47FF6EA1A563A57E9649EA5D14D1A50EAA457463381C073777EF1600607BAF6428A7DDC079D47A204EF1E1F1F0589FB054D45E02CE623B3823C317C601E589E2
311
2B1E88B448524B86A82828E32345EC18AE17214B42F8C41C6D428016D9BA31DDCB47572561E5A402E5BA4FCE55F78AF7268524AA04130F3A20BA5D1E9F9948EA48FC8F5314FDB35E21898198060034ACE5E3E2BBCA34092518F275190AF65F45867FF0900AA4B81F25427414C372BF51DC29AA855C5428EE1EEDD6B849AD60
311
F6E73475C2D2523F8A2772C840A478DED18A8C5C91B085F255DC4F54EA7AA8947354FD17ECF8FB3B4A0DE7B483CAF3A1165EE05BBA413E5C1FEF3DE1D6B8F2F3F3251C17D9FCAB48A9AAF63AC773A0E413BBC46A9ADF84A566FC920E4D8C52C9769EE3301CADEEEDD92B312E02E2A7E35B7F1E7D203FE5A7D75578B06E99D0
311
E46FFADB8FDA17ED8880390DA29094202D6F645F76F6F96409CDA05495A96E84B04A00D1A6C6C81D7F3DE9376E828CCF144EE50E364ACCE7237EA0BFB5607ED1AC3CFE73794E5B61739D14DF1743441B1AC98F00ECEDE9E7301FA29755FBEFA68C91EF2B314CF510537EF1ABFC9A762496280B546F5EDAAF8A5B387D469FC9
311
A878A92828C88608453ACEC6094DCA54111E7AD5B2663DFE2DD151B7F123B9F4FEF8EE36AB125FD7AD52A59B1B765B3E3F73E3F73DEA93875004D2AFFE3CDE9493B87A9904DD052028949041A91DC0E1BA47BA714343FD5B25E0A6A09503AFC17C790058A836A324FE31D7893512E28230332F153181C1E018E1124EBE1BA2
311
62AA428A518237D1EA7275E48C5C561BD19ED6912EDD8367DA0F31E40EEAE9683DA9257525AEA7B632B97119E17145A90231768A4F3B9120FF32E8319B015E3CBE26F1A754177D8185345817C096B0CE443A955D13AC15E1FB5DEEA0239EC32A3C92241A237B0B02FFCB4F93CF2B02570C8D192E2F2A68CEEB42F12E6F8CEE
311
FF46C251E22B4341C56FB08CCE550E7A9D6F4D6564B9EA52A83D5BF2C6E03FA19D2775E15A8A7ACF30A13C259EE7F5EF2AC3BA354F1500E1A07FC63FB4686E2F12EC69719F9ECF5FE3F35598DF2CE944008CE78F0911BA5BE5D0A34E0098FF038669C26030BA9B300303039852A8F6F496341737CA7E0D2E3AAA36DE0A70AA
311
7D9CA0D54D9AD84B18A44C9E625475E1C97B93BEBB38DCE7D227E67A2D00F531436136355F243D1FC0D712C5765754FA22FCFFAE97919161F46D6E61ACB37D83777B385889770B50765B127768443A5C4D3A4E35A3151111F146B7CA116F918A049F1C272F2CD7976C69A0068773451659A97E0F4A08FE604C3FF6CE7385DB
311
19F4D3ABC8A0D80DA8A42096AC377DB49382B36E270B6FA7570188B4B7D1DDDDA82ACA487CCA5D38BD3BD039ADBAFA4ACFF27809239B722081E2EB9F145320553D183F28471C388BC8814E5045676767AB58A8E72D1CED2CA731379515D2E533E4CF0B39DFC625F97AC4836831A4DE330E87A8126FA17EBE583D614E71E22A
311
8DBF2825599743E0640037303E8E1B1E8EA4E1ABFA4F62907B5E4E0E5DCFDAB417C36C6848A2B8D15F1E505434C0707E16B1CFC2A1C36A42BBF55734F8F4301DDC2A5110CEE8C0747F69519265012A2174BF4E955ECD4FDE095A3ABC70536B7AD0B9D7892F81287D667C108703C9B66A221E9A0929D030008F77FF6F5D2108
311
EF5706FC87A3069B976F7C9FC3239D13D283CDEA83597461079FEEE049B0F392889898B7D87D31F8D60ED7B56B91823A8E4EDDB36C6172ECEE42BD42B12CD67994FA0F0DFAE9389356F4CD4425A4B8AA55CBF7ECD585C6A2C2316791E43D5C06841ADBB226A87FD61515FFBB0167B74E56BD7F3E90A57A97FEDCBDF483A0D6
311
699A8C0849CAEB4947FAA90D8E332D9DEBD9F4738C37DA0CAF9CF3DAA68BCB67C420459C7A64498D6E848E5CADE92BB6901F607AA331104A67F7CD650EE169B1DAE94D2C31C2F993632259B6957E246EFE4C5481107B07118607700040E5812A2A2A38DA0076875258C753F60E0F2662C748EDD5F3F3686B8FC3BD6FE631EC
311
CAA1E8B1C1E565AD117E54893E79F4672E32F9E46B2A183DFDCF3EECB4D4D077DBEA0DA254D256045109670050129E9B9B1A9E4A11344D61497A992778095151510C4BB7EF2009B63AA4360635312E4CF668B7E0D3D85A8688E2BD83B569439892ADB63461930D428E0DE42E4AC57CE48DA5CC1449530D8BD3D6A0F08DF20C
311
8E8F570F2CFFFCEA286E30969B4654D498A58D9DA782E19FE3F002181838925592C4A1EF0B332D88B61A92C644547BED490D3A42CFFAB70E36D961F694F6307F72FF15A1C79D5B1B5CEFD353D9E2B52566DEC8F8F09CB3E8359C0F68EBBB7898243E34E12A015B2685AB303C04D3A9E00671FF3DFF0A184E4A2ABEB2B666AF
311
5B3A209C73D8EF29DCDB069C9F391EEE9DD0F74C7BCDE16F8F02E3B8816122BBEB50665775B600549D8BB33A54A6BF940C028118BC6878C79958D6784F9DEAA6E26748386FFAF8D0D0101E2847B6563F5D8DC1D78F787BE00E2C941AE12148D4A81599FE8F68D4DA5CDED75530ADE138240300EE13B0FC13A1687FED677466
311
2C05A2B7DFB186732F0D7A93545D8B0A6390AE5054D9CB582DA846D7A061B3358B45E2B52DDE63E114397EDB7E09233A579155D795BE76102CF277F4DF8B188C4F2879BEAE3C08347124BF9ED23B128259FE107D31E34A652F090B30B39E0D9AF917B76A2806135621A8A60681F16AF216514BBD02711585B5B1AE823F4B2D
311
0369EA5B6BCB863072727FFC871CA6C9AB79A814D989057E9470A3D238BC87CBB4A0EA49AFE2B86F22E499793CAA9047080450166BDC357524561E258C77CB697F1ABB32562CF87C3B7AA12F911EF19FB3E5C02222E887D08202A60A17151F5E053A86B437771088B4FEE14D652C43E8D939995D34545E12E2FF93D4E366EA
311
D25F10CB7DED141563C3D0C447AF06078A91135FD4B9611583CB4BF3BD167F2399CEAB0E0100F8FFC305F00F1711717173138B4B48C83022295DE657EFEDD97F238ECA80F528AFB4F8D67AD4E2594B9A3AA86D7487EFC313BA95745C186F0CDD84CC12DC9CB0424B42203D351FD9C0A3AF10CC7F388E0329279087386421F1
311
94F4A29464C1DEF7EF8BE515E4A199DCD5B909342598D8FE6A231F71336248D5CEC5454455C7BE383B3BC7B260FED27F703FDC39A170F3827239102F59D4DEE7FEF82EAA1A5E4BA94DCC4CC44E7E2EDE20F24244E4454369D2E87C3F823F193FD4FD27E1C23984B01898D15ABC20711A8A558054951A6AE280096BA36CBA43
311
9603B7B0B4C45F248C14B2383B4B5CD8ECECE4FF859AD4A6CA2326D020EF090F4041D28DB66E5256B56232CC52829DE8060BAE6BBF37D4B7469B822454FE93210A3E8D15E69FFCF01123222611C51C4FD0A041A0CFA2471CF6BE38D2B20FA4C3525B5B8B586759475CF80ADFE67A284AC24651E52B8E683D24C2622642F27E
311
7C3C22783BCF63648BC398BD6CD0D9C97E7E7E3EACB6126DB7A6C1FD9F1031302EE67ED96F22B77C7CA0239BB324207559B105E4693EB26EC46182A92C9C0DBD24F29B31C5C5AC1F84300E0E17CEEAC15F5736FA4A98971E2F1423BFCD68D4BBD5F86E74B40A369F39507C88FCDB35D2DD8DEBEA4AF999E23CF2816D204200
311
DF6E611781B9884C1AC8888B4DE397320472959434323A5A36B22A8E1F721A270DF3BD65E4A31C11FF048AFB0D8B7B6881423793963A23CFCE935FC189ED36FAE35C46DA3574C979E4394BE52084F3081837BE033396D2EBD80F1F691B273F660D2B32FA27A33B1DE4ADA5F0FA4651511102DFA410DDA86E065272CA314D52
311
49DF91B06BB92807B28EFD54F08F7B525252782CD276DD02E6B0319B13DF87B1F6361AD6B28FC0D711CF445429B9E5A433CD493051C49A9E03DDB1B147D880253514A5DED88009018620EE229101C041950E2D8AA8E1F5F5438E0C0C0C60EEDEE9E3E0C051948C69F84BB7B2A48A1F3C8EB9E6864687F4F4F6F6E2FA87608A
311
DAF9C5E117B7C1A737E710769DA1D15ECE6A84502AA855398712D5FB51BE92E4EF824969CE18278798AC303C2C7980DD2500ADF8FB1E6D6C2FAAFF9987178923334A244758BAA01A9A1B70FA5097D01E1CC2A58DAD0EC94CE6430AA9B0C10D75E3C6BAC670EFBADEE1607739CE0FC18A2587E3EC3058562014C64219C69BC2
311
69082D5C2F4A659278D585755912176D78A1B641719C2A394CED495A1AC5D583FD2F5EDD93308EA7EAE8A6DD396598BDBD3D4CFED62D18A5BDFDE0DD5C80D1A89BA62697B131AE7CE9A6594138582F1B37D68F1749AC7CB67A70695D48A4A056AC1FBD4E82358CEAE38F54B95A9016F9000F9879C0D9D131768635CA798895
311
F27D6F1614F11F2838A83611AA51C9A3DDB539D42979C29F10465655C17BEC3E2760B80DCBF609198C7B171A531905F3EC218D696025975E986C6B4C666666787271F202805577DD5A3EF0CAFAF91B62DC4B2DB4217A7606282F31D8DDBC290593BAA93EA6353AFA9939B877978481E15CFC9F2755CDC00C538F63A4BA3E80
311
AE009B73CA0185687D339A507D165B74290D6EE46D5C58148F020C3668ABE9EF2F7549170DC80DB41FFC1D678FF19AEB10C7133832B104B80F691B3138F97A92D26E551F1F110400D45AC71A9B9AC41A1A1B1DAEED0B0810638EFFB511D46B121C6FEA0F38CD00E03CFFEB9713FE1F9C263E4DDEC160D0497FA9A132BA6085
311
84057FB15380825DE6C7FC3C667EE947D488A09898D8E939C4953BF4EC9836344D2CC6B2971B2A21A572B06096F4982D2CC7232D46E8EA69DC83722E267754D777F97F96D5DA74E1E75178084D0E70F12AD33E5F71EF2AFA599B2BEBF60A5BE475F444F240CBFE8143C334E7ED9150FEEFEF7EB020C4DBED388DD1D6A167A7
311
6F3CBF119B578AE8CFA7736ACAFA4440A1C47185638A0D2F3EB5BDDEFDA958FB13CE4AA4923D5BF840392D45544329525749734866684BF7F8D9D54D892E19BCA9F829A0F8BFCBEEA6CFDFC61D74EA1A645ED7A1FF241739F15694BD835B66FEC5677E40FE69BD3F91AE402F036537218A401CB0828604AD189E575015C6F3
311
F6BBC8AC79CF6C70653847254B31551EFCBEB5978B9DB85D58D0FA41A9DFE9C624834AA04949D24B5AE6D299E072D152D12097920F14AA92C31C3B97E28B6C2E6E9C23D63043ECBBC0A60FDF5BD0C33C127EA8A3308B8B6AFFEB28B4455BF6E7AF4FC6222728357EB8E46E85053E6A8843AB23295BF838ABDA94658FEF3F83
311
2F147046B4ACD6F7D48E8FCC9618582961C898D1C7A253C91BFECBDA6BA18A1FCF70755DCCEE2222F41B76D23CA98D0CB3D95F0CF66D57FFF65E2A90F5DF40FC3187621E981BD0BC1D992787212688976B94A8F0C6EF646624B570B78E068826F87CE27041A95C9A4871FF65CC17FCB1639629AD6A9517000D63AC231F3D74
311
1CB8430777E7ECF80CE7A3F73C0F162F7E56AA71F4DA80A33CD6ACEE78E2C11FAC03DAFCE929B106F8F6B3ED2DC71FF994BD9CEF4E9A94896EF1B6E2B7B4978168BCF0847A3D2A4F1B0500B926E634B174548E9FBAD27153FB5FC36799B1E6C7C38A94E1F9E996796D7B485E635D5287A2AE76FBD11A341DB3F8F810385BB7
311
296391973DC6C37C452A9305AEBBE0CDB6C566DB59FE60C8E94B1FD090354BF51439FFD1B48D725228FFA88C84F686F547107A7A235665A4593B7C34D748C1AC8D56DD5DA861EEFBADDECBBD65117E65851F90351AEB65F0EFCFF4BCFEF24CB7A5879699FAC437A7AF9099186CF006BB923A59E37D7A36A29FD8D2CBB914A5
311
E9D0A8FD212FBF796AE9A67958FF1D5D8B85F78F96219D4714EB919929241B6C018AAE0C02069F8D919961EC5DDFBFB7573E3AC8E08BFB7C8534BE6DE045B3CD63DBD71F7638BA2309CAE398EA3A7D8F98BBBC7AEB367EFA5CFA27A9F8F2F52FE878058E6209C026453F8E7E8A237DFC389E9590F6059B397CFD65183BBF93
311
6E86896612A5B5FEE49DAC8455D026218AFEBEC12B3523A45B57B82C9C97E02ACFA1184DB18E48CF615DBF39C3CC6F0B4AE6BBEEA2E39D944E290302FA3DE33FA7E40296E2EF7BF1CD855BBECFAD0FD622BEE9746FC4FDFDE545AE6E3BC234CADF83A0FB76DFB145BF3828AE3436368AC24989454F8FF70A177672C711CAA1
311
A76107218CF948CA01F873520E7A2B118EBB161ABAD432932029628B6761590C98AB590C8C8C79798CE9F715BA696E839E9131A4BB68BE923F1747FBFF165331FFDD4D05997ACD168F12CA75348DAC04C7F509FE83898A8B421181AF492861CE81E4A2DD0A30850CFA95E05F097FF70F9E777310D584A75BA7018922E271DA
311
B1D785671157685B7D383D3E074DDB4F1E44EF04B07BAAC75A062077C54B9752C738C9D804D402E02851F3F89605AF189738C18C021D2139EAF72513824E10DDD3047BACC8521ED7E98B257D1166903B1B08FA6F918FD7E162913FEC7D0EF4787E29C35FBA8C6E2C9C20E9AB30AE42CA2A01A090E7D010C1B5BF9CEE2A304B
311
F3A987FB40D836979B79E18D70F257DA61E808472DD85B82761825779D6B90CAEB0F23360C6F80A7D7D77545E95B3DFF0CF96A827F9B5BCECD2C9698718417EF80FEEDEE938AFF55859D0D540B7FE09435583A6F04874A0C7E8CF234DF4879722000167F5872CEC6BF3EF7E5A8CC8121E6A359227C8A29C95212F9F735BC72
311
A887D56B8F309FC525BFB4FD767AAEC4AEFF249CFBBD2DE1AB9969A6155C7D8DABC307E47324C1F916C7BCFF40ABA5644E9FFB9238D19ADADA49D9610F01ABBA57E4DFCBDCCBB2B93C8953206C91DE01B0E2651A6D6C31721915B31F7B7CBCE55466F6D70402788FA91D73BE4ADCBA99A35F17D6B83383704917D6833F0FA3
311
CD45C926ADB8BC17999A4A0AFBCE2541F7B8CF4C2F5FBA611B3E626D64407CB32C122DFF4EF8674D6EDBB86C8F7C6A16D50FA685E2CCA34F8F7D1D8265BB0042E9D7F1F666F7BE5FAA5184DF58E12122A42EF02F461B3F369AC746F96528AD208512AB56844CF75B97F352DF7995024FB02855385854F3798670D01CAC771A
311
C3E1889EC25F61A20C1F8CAB46898817F9C47E2CDA1F286BF2F358298709FE567C91133E2638C8B53975E753EA8BFD3578B5F7186B7BF084EBA3F77BAC3132A5779902EC22AF2D2E79F42D324E083386DAEE9810D1B44A5DAA54513C7A71E52A4AB9257D975B621308FE4D2141CC3DCFE946C154A3C1DFCCA7629EC69ACFA8
311
31634ADDA93C0388D2A9A2DDAFCF957C6995BCE7FBB6DC4EBAE79E63EB08E9A25F52F67076F7093CA545CA3053B5BF576DEAD4E0017143C5F759F32B2D6F145B52B67B48909B7C7FCA6586EE385A2189C16932CB6DDFD9152AE317C430492A578ED27B72D85D40C7C93C097939E1B50F4D67F05334FE9DC362C30B7FF561B9
311
5259138ECFD9274C8D695C31B14D4EAA9F3D7FA8DDF652F8C5DEFA23284C799B7D94416DEE81E05A866302DC70192A5368EA65E1CED8BF107A1E2D3119A71E85DC1A7B0C1E93274CE04DD0F2ABC8AC7C987FDB002B6F81757B43502EF7A0D92E416494FAEEA4C9C090CD9557AA4D532F4996A272B94355C5A0E4974EEA9627
311
476F30809B94D8D8D860062E02204643BEC7D0438AF800FC7E2B26955D595421E83C69E1A07E0E3122285835F014AD538188CF9737CE76D464A353FA55A001AB2526B84E985083693BC76FE211CA1D000679C889E3C009832C87E1AC2EDD05C302557422DF0800E316FCAC86978A371F025A6C7DAA9F333E7BD160403A1A06
311
EA75AA9888FF01504B03041400060808006668704628BB58AF800100009E0500003D00000037383531464632432D343733312D343330332D413942412D4530413436433245413536432F536368656D61732F436F6D6D6F6E536368656D612E786D6CBD544D4FC23018BEFB2B96DE15493C78601010A34B880709DEDFB52FD0
311
D8B54BD70DF6EFED3AC0B12E6442E2716BFB3CEFF3D18E26FB440405EA8C2B1992E1C323095052C5B8DC842437EBFB673219DF8DA659866649B798C078B48AE6410122242F2A4994AC7F93815DF85C049C8564CA0A901499DD886B2EB9B1E02448F358701A9235880C49A0119892A20C89D1B9FD768815CAD268CB5E0355B4
311
0B1E47F3E37A2020464BED06AA57CE8FCC20C3C3446D46761A2632A8C1283D07031EFF2AE7CCB1BFEEE916E406DFAC8E36FFD99A9D60A6944090EEDC3B670C7DC13DE86B6B2C5C240D6E503BB85ACD579D513F1B9F9A69DC9CC22AFA80C426D40AF0B21EA168559156B6276F0F726A6BFF04DCD513A87A62CAD41FB24FCB28
311
58B3952E3D852084DA25B9303C15687973CC8E8AAE11DF2836C38C6A9E765E8C1BA1BFB1DC29CDFE518C8B5A7655A4ED7E77291ABEB80DBD82EC866ADE1B8D05AF9E35CF09D7A061F38A986D9EC412B8F0F65E5D81534D9B231D1E5A8FE577A241F3A5FD01504B0304140006080800666870462CCEBD668A040000E0120000
311
3E00000037383531464632432D343733312D343330332D413942412D4530413436433245413536432F536368656D61732F47656E65726963536368656D612E786D6CD5586D6FDB380CFE7EBF42F0F7A649B70E1B90744856B4970F450FCD7A5F05459613EDE4174872DADCAF3F522F8ED3B88D2F1D06AC4050DBA2493EE443
311
8AF2F8EB73AEC8466823CB62928C06C384888297A92C5693A4B6D9D9E7E4EBD51FE3A931C22EF85AE4EC6AFC38BF261BA626C9AD288496DC3F4FCEAFC63366845F7A10452AF41DB320C0D44EC26EAB20918735565582695670811A6A49643A49A6E9069FA4604A64B29016DC4B48552F95E4932463CA888468C1D2B250DB49
311
62750DF7CE273069CE8363F1FF4EDB00E0A21999574AE4A2B00C353B93F3BD4777B8A61ED8F604ABFEDD79CE56A2B7BDFBDBC50996E0ADDE16FED26223C5D30956C29BDF4A55EA686E5E58B112DA45CE67F76F4FA27EFA3FB672FD7372FC388FAECDCA5209E693CAD167BADCD272F943701B3812F8A3D852008B1D2E32DB92
311
7B2F833C6EA95879925356D254582695095A3CE982924720BE5774A3CB9CDCDB350427D2DF20DA1B5532EBE2D5D6288D75D4F7E4FD9890A0EF8E3D93EBB8F8BA4758158EF6FB90A6F9520281C93DE7AAC6D24607DA296BB96018123F821A7D6A5C5884050C475DA4865442732C8B95684A50165CBB3A32F25F783A4A480ED5
311
9AD7F924B968AEA50131F46303223E6A397B0E52976030DC1DCA81D7E7C1EDEEA42C19FF27635C505E2BD5198A599020DF50A2330FCB3AAF28CB0124108429553EF1B228802E2265D8F7CC2401042B155BCC7070F1E5C55F13B4A9577362CCCE46C32174E010C3C378C44841A4BDA00FE3A12006CE11EE6AEC59894D3526DD
311
E1CD59D503ECC324017F8061B7F162162FA62EDD81AE3308617770796DCBDAD2B2625C5AE8A63DE20B2C8AA5E95E76E5730823955956E33E705425A2187C185D36489A1B44D3DCEC2172F6BA2105C3546287A7194B2331768EBBE64F6E70A9930ABE0ADEA89E9E2C38523B810287AD67A54A039C1606EAFE68F8304610BB90
311
93DBDDABC0B2AE4E290DCDA15376D7E39F72B556F0B32EAB5D3D498B4C41ABADEC3A1434C422D87E8025A84BDCB2B1417ED750FAE4DA8976863974C577C7F902D3F156AD354DEA3540DE6BEAE2BEA52F7A2EB4CA43802ECE5BF2CE2EDC9347179FFB023CE412E60BE16DA0BE29B374988A553F561DC04615DD35F7D2C8979F
311
60E5955CE93DF29DED8AFA1EE6642D53418086C03C47C377910F75F7E8F5EF665F70B60FFB22AEDF897D119E8423C773E819A3C1E55E550599EE6EDCA34D0C86FD72057DF2CD46F16A470682471C164E4346D5306BF12D7D12D82CFF673D41636C347443FEB51B50D72EA171A8E4A58623A4A16E0FA2B8B10A0D23268D87C3
311
3896EE8FB73305A74BF224EDBADFA0BD674AB354D63DB7BD5D83426761C077DE767728235446A552754EB93B755891C3C4CC6CADE37CF0E912A7BB38DBA010F9DE1282EDF470CA69A9CDA482E334C4A6EA4107987980B17E72F31730EBF88BBD39E7C629F56797A3C0009C2C5AE7951D9A05A02773440F02EEB4DE396A3B6A
311
570C72CCFBCD823B0B8ED3F1D5CEDDFED772FA70236C83FB7D86C385D570B87107535572A60A96035F8F7C6A7192F13007246BBE0521855E6AC46F3E27689CEE7D186A6FD679D98CDCAD13333E04EBE7ED6F55FF01504B0304140006080800666870466180134D5F0100006B0300004500000037383531464632432D343733
311
312D343330332D413942412D4530413436433245413536432F536368656D61732F52656E6465724D6174657269616C536368656D612E786D6CA5934D6FC2300C86EFFB1551EEE343DBA41D1A103009551ADAD40EAE28A4A68D9426284961FCFBE5A340113B2071746D3F765EBF4DC6BFB5407BD0862B49F0B037C008245305
311
9725C18DDD3EBFE3F1E829991803366715D474942CD30FB4A782E00C64017A412D684E454CE3FE28995203B162A6EA5AC94B66997D225E109CD63B0135484BAD1B3C07E9080CA35DB3119C11BCA5C200461A68A1A438126C75E3E230D40FF81FB3F03C91D1E3A3A0AF79FE28E25BC39EC3E17E4C2A2D94A0833A51AF55BCCA
311
7D88572FCBAC529C4140B020FC3AAFA886621DCED7EAD7664CC86024E806DC297DA1BB393E4156543457A4537DB8817349A70F8ACBF09B3EEE2CB2F33E91B65D60786E4E3B39B77E3FEEEF5650424525DA657FB8B46BE6BF064646F0A0F7327C0BC1BC1B4CBBC1C419FA3CCB23500007872A2580CAAE5461865565294E4EDB
311
4617B62FF579DF9A5B2F54E834076A597573A020912FED777F9B3F504B030414000608080066687046754BBEDF51000000570000004700000037383531464632432D343733312D343330332D413942412D4530413436433245413536432F4173736574446174612F41737365745461626C654F66436F6E74656E74732E6269
311
6E5361606030B33036B1707175D135323473D635713676D175343772D4B53072B53032B034757433321102AACB4D2C492DCA4CCC492C28484D2C4ACC4B4E050A82012F90744FCD03CA26072767A4E6260200504B030414000608080066687046F865834058000000680000004500000037383531464632432D343733312D34
311
3330332D413942412D4530413436433245413536432F4173736574446174612F53747265616D56657273696F6E5461626C652E696E66558CBD0A80300C06F73E4B117FB66E451741D041DC5BF98480A492E4FDD18EAEC7DD4555D89EF28DF51A0B1BD8340C4DE7DD848B988C0ACF0649566493F2408C508DDEBB99D5129FF8
311
F1AF8CF5B9503E20FAE5A16B5AF702504B0304140006080800666870464447F321340100009A0400003600000037383531464632432D343733312D343330332D413942412D4530413436433245413536432F4173736574446174612F636E782E786D6CCD94314FC3301085FF4AE43D76D20A842AC71582A51348540C6C57E7
311
52AC3A76645F10FC7BEC3603A8882943D6F3BBF3F327BF93DBCFDE161F18A2F1AE6135AF58814EFBD6B863C346EACA3B566C950CDED30F192B1CF4D8B05C664A1E831F87A9D46207A3CD556BDC692ADEC788B48783C5A7EEC13B42479115DA428C0D8BFA1D7BE030926F319E780B04BCE601A31F83C634894C8FD3241D1008
311
5BA656557D5356EBB2BEDDD7EB4DB5DED4AB3729B252C983F776D29B7459F043A12FB7325549918F951C839934F92D4CFDE5911F8C932229958C141293A983BE86D401C3608D064AE884D784542611422FC545ACA4C80C7E9178C4CE38935B76C918900FCFC91E0632B83822FF799D9FCCCE4502A771B93CAE1DCE4FE1E5FC
311
835E2F813C27666939B976C88DEB66488938AF91149ABC55D437504B030414000608080066687046449344A0E40000005E0100006700000037383531464632432D343733312D343330332D413942412D4530413436433245413536432F5265736F75726365732F36383334384445442D323136432D344333442D413732412D
311
3832453832303935414632342F7468756D626E61696C2F302F636E782E786D6C4D90C16EC4200C447F05714F08BB6A55AD1CF6277AEAA5A2C49BA2251881A9DABF2FB41CF6646BE6C9F20C5CBF8F20BE30174F71957A5EA4C0E868F3715F65E5DBF422C5D54026E2074C8A680F5C6597A5813D534D43DAF0666BE86AF0F13E
311
C41D2366EFDE53DCA570C196B2CAE23EF1B0B3AD4C1B96FBBC59B6B39E3316AAD9613BC0FEC071C065B48C9B34A7453F4DCB79D2CFAFFA7C59CE177D7A03D549031F4461F03E32664AC2515B62FB6601D56D0335FBC1F408D23CBC06AA99060AE7967E40FC931A64530ADE596E2529728C3C3508ED01EA1F36A07ADA36FEAA
311
68B337637E01504B030414000608080066687046A233C2345D000000800000006500000037383531464632432D343733312D343330332D413942412D4530413436433245413536432F5265736F75726365732F36383334384445442D323136432D344333442D413732412D3832453832303935414632342F7468756D626E61
311
696C2F636E782E786D6C4D8B490E80201004BF42E6EE76F3C0F216234B883063108CCF170C074F95AE5473F5C4C06E932E4F28601967600677D21E9D8092EDB002539227A2FCCB80E1168D80A6417297A89C5D6963B7129A0D1E8F2EE73AA7B62BBEB8B27DE50B504B030414000608080066687046BE897623630000008800
311
00005B00000037383531464632432D343733312D343330332D413942412D4530413436433245413536432F5265736F75726365732F36383334384445442D323136432D344333442D413732412D3832453832303935414632342F636E782E786D6C4DCC3B0E80201004D0AB90EDFD75167CCE820A4A845D83603CBE602CAC26
311
799919AEEEE0D965E2E908050C6D0FCCE04C8BC355404EB6198129C92351FAD580A10E464065907C8D948F8F166375F655BDC3FDC3B4E530A176BE7057BDC43B2A593FE403504B0304140006080800666870464FC5ED6D7E000000A30000003600000037383531464632432D343733312D343330332D413942412D45304134
311
36433245413536432F5265736F75726365732F636E782E786D6C4D8CD10E822018465F85FDF79422196D806362EFE1121D13A191B41E3F685E74F56D67DF39BCFB6C0EBD4D7CD9E005D4A70A90F18F3059BF0848FB8C19A04EF218C2FE7703E4C7CD082818245F6248CF034D661E932BD459BF1EB0650D657AD098D46D8F69
311
DF68ACAE4461460646AADB45DD09CDC6B928797EBDBC252FBF504B03041400060808006668704678A9D8CA080100004F0300003400000037383531464632432D343733312D343330332D413942412D4530413436433245413536432F536368656D61732F636E782E786D6CCD93BD4E042114855F6542BF30EC4463360C5B58
311
58D9A8951DC2DD952C7027FC187D7B61A4D84DECB4D80E0E5FC839878BD87F7A377C404C16C34C381DC90041A3B1E13893920F9B3B32ECA58888F90C2343501E66D26422C5316259BA64E0A08A6BAAB3E1D4C57BF41EC3B37E07AFC8A09D4A692669DD5255321A48276A545694D308094BD4506FC8D643BF414750190C91DB
311
91DF6CC669C36F5FF8B41BA71DDFBE0AD64829DE105DE76DC810711934D645A87646C1DAB11425DACEB40C449E7BA3B50DC12A2145CAB176D0C9FCB554522D8BB35AE55A155BC11F460AD6A25E047E8000D1EAEB4C7C61EEDF223F4130101FEB2B45ABDC7526FFCDE3DF0A60EBECD711685F417E03504B0304140006080800
311
66687046E3603EBE7A000000C20000002C00000037383531464632432D343733312D343330332D413942412D4530413436433245413536432F636E782E786D6C6DCD410EC2201085E1AB90D9DBEACE05D09878023D01A1D34A8419C380F1F82DA68B9AB8FDFEC93C3D7C52546FCC12980C9CBA232824CF63A0D9402DD3E10C
311
6AB03A3397DD192872090D3406ABE7CCF5B5D18893ABB1690CF4DCF02282E5EA8A5BB96FFE536F285CB347F95BEFFE81C9ED5AFF9D5B1FB575BB00504B030414000608080066687046985D04D77F000000A300000007000000636E782E786D6C4D8CDF0A83201C465F457EF76E9AF6676085937A8F581692E97039F6F8D3D1
311
C5AE3E387CE788FEB35BF4D6E165BC6B815E0820ED1E7E366E6D211E0B6E00F59D08DE1F7F37406EDA750B194327D6E0E3F344B35EA66833B5C66D27AC9B928E63A130AF19C59C1186E5ED2EF14024AF5431C8B252C9B86625CDAF9736E7BB2F504B030414000608080066687046CA1DF9C9A900000073010000130000005B
311
436F6E74656E745F54797065735D2E786D6CA590410EC2300C04BF12E5DEBA70400835E500FC800F84E0B411AD13252E2ABF27A55740421CEDDDD9B55CEFA7A117778CC979527255565220197F75D42A39B22DB652EC9BFAFC089844F65252B2630E3B80643A1C742A7D40CA8AF571D09CC7D842D0E6A65B8475556DC07862
311
242E78CE904D7D44ABC79EC569CAEBA537E3521C16DF5CA5A40EA17746733E0B6615DE7217475F386F18B9481C510F1F021CD9FF027EA0E1F5C4E609504B0304140006080800666870463DEE336E64000000790000001B0000006175746F6465736B2D64657369676E2D7061636B6167652E786D6C35CBC10E83200C00D05F
311
21DCA56CA76D41FC96062B120735B69A7DBE268BB7777961F8D5AF396893C2ADB70FE7ADA196782C2DF776D7A97B5933C430F15651E5469C55D70F80A4992A3ADC954792C525AE70A1E4D6AD9816CC044FEFDF01FE3FDE907802504B0304140006080800666870463FB8E482F7000000960100003700000037383531464632
311
432D343733312D343330332D413942412D4530413436433245413536432F4173736574446174612F636F72652E786D6C8550CB6EC32010FC156BEF60B0D3A48E30515D275FD0536F08888B1283C5A3EAE71762576A4F15874533B3B3BBC34E5FF3BDFAD43E18677BA09840A5AD74CAD8A98714AFE819AA1367DEB9F84B0695
311
15B3EEA1C0C0D9E45D5A36483A1BB52DA8754A6FA0084147A8E43D7F7A08F243CF028B14B322DCF022E44D4C1A53BCEA384BC9A8ADD5A8EC66AE467BE007DA75DD79DFA191B614ED4632A0E17C19D0851CC82EBFD78650569766CEA2997FA64BAF45D40A78A69F106911DDBFD1F648DA236DDE595D949C85E8F3CDDBD0721D
311
F097B2F528A260F5CAFE714D8BFADF35191BDB66735D3B02F0B2E483E0AC2E29E5F28830D79228FF06504B03041400060808006668704621361680F20000008E0100006800000037383531464632432D343733312D343330332D413942412D4530413436433245413536432F5265736F75726365732F36383334384445442D
311
323136432D344333442D413732412D3832453832303935414632342F7468756D626E61696C2F302F636F72652E786D6C8550CB6EC32010FC156BEFD860A7491D6122B949BEA0A7DE106C1C94182C1E553FBF90B8527BAA382C9A9D99DD1D7EF89AEFD527FA609C1D80D5142AB4CA6963A70152BC9057A80E827BE7E22F1A54
311
56CE38408141F0C9BBB4AC907236A22DA8751A57508680112A75CF9F0182BAE22C6B996266845BBD48759313D6AC7EF2044FC9E8556A74763317831EC48EF57D7FDAF6E4C83A4636473A92F1741EC999EEE826BFB79632DE14B1E0D1CC3FD39547195183C8ED17423BC2B6EFACDBD36ECFDA0FDE14A6E021FA7CF33AB45C07
311
82F2E689FE714B8BFEDF2D191BBB76757B2A0288B2DCA3217853D2C9E5115DAE2549F10D504B0304140006080800666870465F76D580F8000000960100006600000037383531464632432D343733312D343330332D413942412D4530413436433245413536432F5265736F75726365732F36383334384445442D323136432D
311
344333442D413732412D3832453832303935414632342F7468756D626E61696C2F636F72652E786D6C8550CB6EC32010FC156BEFD860E751479848CEE30B7AEA8D0271506CB07844FDFC42EC4AEDA9E2B06866767677E8F16B1A8BA7725E5BD301293114CA082BB5193A88E186DEA03832EAAC0DBF6450183EA90E320C8C0E
311
CEC67985843541998C1A2BD50A72EF5580428CE9D381177735F192C79014FE51CE5C3CF8A04A522E3A4663D4726DD532B9E99B560ED89EB46D7BD9B5E84C1A823667DCA3FE72EDD115EFF126BD538D09AD7233A3414F3FD385533C28092CD15B841B4476EFA439E0E640EA0F5A6525A33EB874F33A345F072CDCE3F469B81E
311
69B5B07F5CE32CFF778DDA84A65E5D970E0F2C2FF92218AD724AA9BC224C3527CABE01504B0304140006080800666870463AA9A2BD0D010000B10100005C00000037383531464632432D343733312D343330332D413942412D4530413436433245413536432F5265736F75726365732F36383334384445442D323136432D34
311
4333442D413732412D3832453832303935414632342F636F72652E786D6C8550CB6E833010FC15B477831F8440641C9140BEA0A7DE2C70522BC146D8AEFAF9B5132AB5A76A0FBB9A9DF178871FBFE647F6A956A7AD6981E4183265463B69736B21F82BAA213B0ABE5AEB7FD1203372562D241804BFAD362C1B345AE39549A8
311
B193DA40E99CF2908D8F38B4E0C60F35CB5C061F19EE9E2F72BCCB9BCA49FEE2091E829E36A99EE26BFAAAD50A624F9AA619AA06F5841154F6F8844EC3E5842E788FCB58678A092F925870AFE71FF77155D2AB09445CEF106688546F841D303B10FACE8BC414DCF935DEBC99A6EB4054352BEB7EE81125D5199567D6A36E4F
311
3B54D3A1A6B8D975175AF2E225FC631896E97FC3A08D6774337C291C88F4FFE742F0220518DB33DDD853D8E21B504B030414000608080066687046ABE483DFF8000000960100003700000037383531464632432D343733312D343330332D413942412D4530413436433245413536432F5265736F75726365732F636F72652E
311
786D6C8550CB6EC32010FC156BEFD860A7491D6122B9493EA0EAA937041B1725068B47D5CF2F24AED49E2A0E8B66666777871FBEE65BF5893E1867076035850AAD72DAD86980142FE419AA83E0DEB9F84B069595330E5060107CF22E2D2BA49C8D680B6A9DC615942160844ADDF26780A03E7096B54C312BC2B55EA4BACA09
311
6B563F7482A764F4DA6A74763317831EC48EF57D7FDAF6E4C83A4636473A92F1741EC999EEE826BF979632DE9466C1A3997FA62B8F32A20691E927423BC2B66FACDBD36ECFDA77DE14A5E021FA7CF33AB45C07E215834B5E61E0CD83FDE39A16FDBF6B323676EDEAFAE80820CA927742F0A6A494CB3DC25C4BA2E21B504B03
311
041400060808006668704602AE080DF5000000940100003500000037383531464632432D343733312D343330332D413942412D4530413436433245413536432F536368656D61732F636F72652E786D6C8550CB6EC32010FC156BEF60B0D3A48E3091DC243FD09E7A43405C94182C1E553FBF60BB527BAA382C9A999DDD1D76
311
FA9A1ED5A7F6C138DB03C5042A6DA553C68E3DA47843CF509D38F3CEC55F32A8AC98740F0506CE46EFD2BC41D2D9A86D41AD537A0345083A42251FF9D343901F7A1258A49815E18E6721EF62D498E255C7594A466DAD4665377333DA033FD0AEEB2EFB0E9D694BD1EE4C06345CAE03BA9203D9E5F7D210CAEAD2CC5934D3CF
311
74E9B5885A01CFF413222DA2FB37DA1E497BA4CD3BAB8B92B3107DBE791B5AAE03FEBAEC1958BD727F3CD3ACFEF74CC6C6B6D93CD78E00BCACB8109CD525A35C9600732D79F26F504B0304140006080800666870466558969602010000D70100002D00000037383531464632432D343733312D343330332D413942412D4530
311
413436433245413536432F636F72652E786D6C9591CB6EC32010457F05CDDE0FFC48D20813B956F2055D754761E2A2C46019A8FAF985DA55DB5DBB025DCE9DE1CEB0D3FB74276FB8386D4D07342F81A0915669337610FC353B003971B658EB7F60408C98B083240367E362C3BC49D21A8F26A9C62ADC44E11C7A20F21E2F1D
311
38F98A93C845F09170B77C16F22646CC69BE729C793D7D59E582C2A3025E95B4CDCA3AA3BB275A1FCBFA48AB67562492B3A08DAFABAD194E2FA8889D7D8C04BC65C5FA1AA9A0D5C66815FFA8AF1A17E0FB434B2F976AC89A7D4DB3A68E3DFA87C73E3B977DB31BAA73DFEE8658249A39737E8993D98AA419FCD5BE1A7F250B
311
B3FA67B2D5E180D3EF50451A3367C5E70EE29956C23F00504B0304140006080800666870469AA20D0606010000B201000008000000636F72652E786D6C8D50416EC32010FC0ADA3B36D869524798486E9217F4D41B05E2A2D8601988DADF17122AB5B78AC3A2D9D999D96587CF794237BD7AE36C0FB42280B4954E193BF610
311
C3053F033A70B63A177ED1005931EB1E320C9C8DAB8B4B81A4B341DB8C5AA7740185F73A009253FAF4E0E5879E452562480C7FAD1621AF62D415AD1E3CCE82997F46E5AA45D00A7843E813262DA6DB57DAEE49BBA7CD1BAB3393B3188D2A5646257773317A05BEA35DD79DB61D3ED296E2CD910C78389D077C263BB249EF25
311
69B23A0F73E6C39A762E222967405EDCB22FAB1F2DCEDE9D9B0A218552C8D9E90B3861756EFC091D17F58FD0C686B629828F090F3C07BA379271BE602AF7F3A69AAFCDBF01504B010214001400060808006668704674FFF767D9000000200100004F000000000000000000000000000000000037383531464632432D343733
311
312D343330332D413942412D4530413436433245413536432F4173736574446174612F446566696E6974696F6E4974657261746F7250726F706572746965732E62696E504B0102140014000608080066687046C81ADDBB010100003002000045000000000000000000000000004601000037383531464632432D343733312D
311
343330332D413942412D4530413436433245413536432F4173736574446174612F496E7374616E636550726F706572746965732E62696E504B010214001400060808006668704688E57597CD3F0000904100006B00000000000000000000000000AA02000037383531464632432D343733312D343330332D413942412D4530
311
413436433245413536432F5265736F75726365732F36383334384445442D323136432D344333442D413732412D3832453832303935414632342F7468756D626E61696C2F302F67656E657269635F706E67504B010214001400060808006668704628BB58AF800100009E0500003D0000000000000000000000000000430000
311
37383531464632432D343733312D343330332D413942412D4530413436433245413536432F536368656D61732F436F6D6D6F6E536368656D612E786D6C504B01021400140006080800666870462CCEBD668A040000E01200003E00000000000000000000000000DB44000037383531464632432D343733312D343330332D41
311
3942412D4530413436433245413536432F536368656D61732F47656E65726963536368656D612E786D6C504B01021400140006080800666870466180134D5F0100006B0300004500000000000000000000000000C149000037383531464632432D343733312D343330332D413942412D4530413436433245413536432F5363
311
68656D61732F52656E6465724D6174657269616C536368656D612E786D6C504B0102140014000608080066687046754BBEDF51000000570000004700000000000000000000000000834B000037383531464632432D343733312D343330332D413942412D4530413436433245413536432F4173736574446174612F41737365
311
745461626C654F66436F6E74656E74732E62696E504B0102140014000608080066687046F865834058000000680000004500000000000000000000000000394C000037383531464632432D343733312D343330332D413942412D4530413436433245413536432F4173736574446174612F53747265616D56657273696F6E54
311
61626C652E696E66504B01021400140006080800666870464447F321340100009A0400003600000000000000000000000000F44C000037383531464632432D343733312D343330332D413942412D4530413436433245413536432F4173736574446174612F636E782E786D6C504B0102140014000608080066687046449344
311
A0E40000005E01000067000000000000000000000000007C4E000037383531464632432D343733312D343330332D413942412D4530413436433245413536432F5265736F75726365732F36383334384445442D323136432D344333442D413732412D3832453832303935414632342F7468756D626E61696C2F302F636E782E
311
786D6C504B0102140014000608080066687046A233C2345D000000800000006500000000000000000000000000E54F000037383531464632432D343733312D343330332D413942412D4530413436433245413536432F5265736F75726365732F36383334384445442D323136432D344333442D413732412D38324538323039
311
35414632342F7468756D626E61696C2F636E782E786D6C504B0102140014000608080066687046BE89762363000000880000005B00000000000000000000000000C550000037383531464632432D343733312D343330332D413942412D4530413436433245413536432F5265736F75726365732F36383334384445442D3231
311
36432D344333442D413732412D3832453832303935414632342F636E782E786D6C504B01021400140006080800666870464FC5ED6D7E000000A30000003600000000000000000000000000A151000037383531464632432D343733312D343330332D413942412D4530413436433245413536432F5265736F75726365732F63
311
6E782E786D6C504B010214001400060808006668704678A9D8CA080100004F03000034000000000000000000000000007352000037383531464632432D343733312D343330332D413942412D4530413436433245413536432F536368656D61732F636E782E786D6C504B0102140014000608080066687046E3603EBE7A0000
311
00C20000002C00000000000000000000000000CD53000037383531464632432D343733312D343330332D413942412D4530413436433245413536432F636E782E786D6C504B0102140014000608080066687046985D04D77F000000A3000000070000000000000000000000000091540000636E782E786D6C504B0102140014
311
000608080066687046CA1DF9C9A9000000730100001300000000000000000000000000355500005B436F6E74656E745F54797065735D2E786D6C504B01021400140006080800666870463DEE336E64000000790000001B000000000000000000000000000F5600006175746F6465736B2D64657369676E2D7061636B616765
311
2E786D6C504B01021400140006080800666870463FB8E482F7000000960100003700000000000000000000000000AC56000037383531464632432D343733312D343330332D413942412D4530413436433245413536432F4173736574446174612F636F72652E786D6C504B010214001400060808006668704621361680F200
311
00008E0100006800000000000000000000000000F857000037383531464632432D343733312D343330332D413942412D4530413436433245413536432F5265736F75726365732F36383334384445442D323136432D344333442D413732412D3832453832303935414632342F7468756D626E61696C2F302F636F72652E786D
311
6C504B01021400140006080800666870465F76D580F80000009601000066000000000000000000000000007059000037383531464632432D343733312D343330332D413942412D4530413436433245413536432F5265736F75726365732F36383334384445442D323136432D344333442D413732412D383245383230393541
311
4632342F7468756D626E61696C2F636F72652E786D6C504B01021400140006080800666870463AA9A2BD0D010000B10100005C00000000000000000000000000EC5A000037383531464632432D343733312D343330332D413942412D4530413436433245413536432F5265736F75726365732F36383334384445442D323136
311
432D344333442D413732412D3832453832303935414632342F636F72652E786D6C504B0102140014000608080066687046ABE483DFF8000000960100003700000000000000000000000000735C000037383531464632432D343733312D343330332D413942412D4530413436433245413536432F5265736F75726365732F63
311
6F72652E786D6C504B010214001400060808006668704602AE080DF5000000940100003500000000000000000000000000C05D000037383531464632432D343733312D343330332D413942412D4530413436433245413536432F536368656D61732F636F72652E786D6C504B01021400140006080800666870466558969602
311
010000D70100002D00000000000000000000000000085F000037383531464632432D343733312D343330332D413942412D4530413436433245413536432F636F72652E786D6C504B01021400140006080800666870469AA20D0606010000B2010000080000000000000000000000000055600000636F72652E786D6C504B05
311
06000000001A001A00210B0000816100000000
310
504B030414000608080066687046000000000000000000000000370000006662782F46463531313837412D383445392D344442412D393438372D3844383138364241343945352F617474726962757465732E62696E504B030414000608080066687046000000000000000000000000350000006662782F4646353131383741
310
2D383445392D344442412D393438372D3844383138364241343945352F76657274696365732E62696E504B030414000608080066687046F270F1330600000004000000360000006662782F46463531313837412D383445392D344442412D393438372D3844383138364241343945352F747269616E676C65732E62696E6366
310
60600000504B03041400060808006668704688E57597CD3F000090410000420000006662782F46463531313837412D383445392D344442412D393438372D3844383138364241343945352F7265736F75726365732F322F305F67656E657269632E706E67355B773CD4FF1FBF73E71C0E67EF7576C9DEF3EC995D46C6A1EC50
310
46649CBDF79E192942562825CE965D8A868C2842C8DE9FDFD1F7E7F138F7078FCF6B3F5FCFD7EBFDFEC41B196891913091804020321D6D7513FC77D8C5070EC3FFEE51B21F068154CC75D455CC028A3EA68992803810109FDDE5D5CEC5521B28A1B422BF80741695D5B529DA1C2D058AD2388BDA9F476F7C2CADC939304173
310
DBF48A452BF8A700C0C70C3D121C1AA15A5270C22E2B9E28763651F7DA0D12CE11077B2ECD0D560B5E3DE2368B1E65C5E1C87384A4CC5F2D9FB8BE39E9B77C753783A37998F5CEF1B4FEE553463245C9712270880DF339E0B882A6BA713D865F6F384C842D440934EF264F4A304F8DE4EEFA1E2BF5E2D91F5ADD9613D6E31D
310
DB33ED31DB1D7916CAF091286EA3D31B9CFECB78BB0060245B943C4C040119FF780A74DD308BA9D028678674EB5504ECF284EE814DAED07440BAF649BE4B55DA2890F4D73E2D489A59EE54FDB0A85B59F2F52C4858A02705C4815A792B0C4A996A2023ECB195073E115E3E3647F64243A8338F2000BCB58DA5692C7E7C3D41
310
3F963FEDF3CF00FBB0F831A9D51360FECA43819F527B89FA260EB63C5DA676830AA3626A3693B23F1A17A0DFFCE3EE164E31B5365EDF0C89EF64D8E38AB0BA9A1117D7C3A0EC44F44F4023095E80BA610DE336D0F99593A88BFC5306E72DF98F7FD132ED95878DF2964EA7E43071359FD83B2BDF9C6B5BDF768F0F3C0FC351
310
199526F53D9460A34511F75D1B63E488178569472C91A94497807A3FD4A390C6558F26D416365C3656DE6E769DA9D8FC73774E1709812842DD8EF96AED1960F79D21B395CDDFE6F92CB4EB962A4668C76990E2EF29798C8941D67DA50F4A5F947872460F1F6FDB794E8A29FD7AC0C0D6E0714339CE258FB17AE8535221E346
310
4A10F29A0BE5EEECEFC5675926A89F49EB14E5711894F6586DB5754EB4D5DA9C6437EBA57DB97A24F8B8A8DB295FFD73266CF57E82694DF5166DDF93573AFE9C9C5EB05F8FEF8E89E0A8917B0B3724DB7BEBB53252581EFC3E38166BA131A3A5B42FE2AD00A769BBFA4458D2DE7822F8C4F63D0B8E21B285AE13325F3410A4
310
35C648C9D91FDEB109E73CEDA7BC796961AF79175E1A3CE4C5E8B0D009B0C9E29EFD98BC8E97554E3D8D838424E270F7685226E5AC268E021EDE3522D583E8F20C0BDE2959EF5BBFEEDAB32FE9A3ED0E39F211A86AA9DEBFC68182EDED132AB8BB794442D2D7EA9F4D8BFF52BC4D55BB165124EE90A42D101E67BBBB292FFB
310
4F66DE5BF2300E44546757DA7CEF8932BFC9F92A0707953491A55C5A5ACEDABD9FA1AEA01BAC3DC5A24E22E7C47213493996EFBC369D086ED9397C9BA6C7F9855C7BD5E15BFC8C53DB3D2A4C5901A57ACD2FBDF4D1676E95338B2C2BCE65FDA4C64F5FEFDC7D9CA5AA1FCF11E193F2FDABF0F4916BF13FB916A224380E6462
310
A9815F2300DC49CC4DF8D055CEF76462F4B7A7ACA7365C2707891370BC1D0AA6203C44CCAB47084FEC057F27FFCD57F89B8B9852459798A675C66BD7CE572CAF71FF7E6D7ECF7BF62CAB7B3F1107DCD04DC55A3F9961700286141C94A4F771FEB2BCDA2DDEE0CB0BAE402FF1DB0100F8E475DFFFC074DDB4498AB7D186A765
310
4DDB1CB680D703D47CEB4E72F8CB13D86A4AA68116E26387B93FD6738779B34FEDB8E517EDF2BAF28D9BE93A1D3A164320E07D42E514725C29515FF361754213EDE06B079A2E99EB1CA82A02019EADEEB87B9AF005BD04BBCECB14AACD6B24EFBE482194A97DD32400685FF1FEF1544D1B14EFB1E7F08E6D2CD2AF52DE757F
310
35F5E62332EE88EA26417AD5C3E0E319D68F25414E6D672BD4522B278C57D18F0113921C71D96527E091F00CEB15AE23D24667369BD3CEFA10C7549D930890BA4366F4EBC55F01F746109F98ABCDD5A3EE06619C6AD78AB33E48E4C9BD21BF7478B385EC05C4F8987E2C1BFA0A60EBEDAA0AE0B015C2720ECE180FB6F2DEFB
310
EB822D96338C9B63822183BBF52FB664A7AE57003AABCE512BF77E7E31BDA2E739AC4C131657DDFE5225E900FB56CC01CDE808FA4A9C9DA16AC679656BB64796283D89812B8F91136AE18EE5EBBAF47A73BE3C153EB5D4CD491B4BFB4FE690A4CF9ABA08C0D8AA64220C438C96EA6CA80B58FE5761E697B3A292EB9FBDA502
310
FA863E49FE694ADDFFF9D62C520BDD1A22014147A0903A05B9B729F54272EF83931FEEC057BFF8C8055C279EAC5C0011804828734024F6CFA319C9CC6867C727184465CD9BB7ED386AFFD96B294A85E3802FAE47244602D8273615952B98C4F23F7EAE4463D9D638EEE374A20959E0FE519C4CFB0FBFE5DD80C2AA3F9DB961
310
D1BDE57E67C9BB47B77FDD74EE3094F5DBBE3EBC1FBDB7393F5116263009E2EFE1AF9A221B2AE234C902BF70E9F280ED23E73908361565964333A3F01D0B006AF32FB21AA1316744B489D5A198E85299241735BE559675130955C902A8ED761FC0DBE337A9F91919AF5CE32AF902ADF9AB2615E00E8A94586BA1A90839B618
310
32FF1BFB76D2EFADE6DB1BA04CCAD3DA649E7E2A0219F592E22F2AD54847EEA8E42271011E9074F8F3DD9FBA6CDF88FFC9FC7E811AD1CA8F4557CE4AFC7BBEDCF0114A48689F20A584520C74DA8127124B767E2FB91A6B186246727BE63C9445BAE02088D58B8EFDC0F1072407CD9B89A13F6303B4A928F593AD489B58E686
310
9325790ADC406036C591729FE14021F94B7796BB11848D463536A092A26F077F94639F7CEEE2A724C66EC885F4A24F8B8A0AC321F8FD149BA529460FAA34E4663C02D41FDF80BCA222D42F0ABFF8490F4FA74C673807C2051D8E467B47B616072860069A9A303ABA9B319D58404461401B0A0F9BE5E1E151C14BC33B32ABE0
310
3DDE91708DFAEB15E7C0D593C86BB7D7EC17BE56E57975F077BFD5525F3A1A361D584A75E08CF29FC7B44B2B3085014F3A5A14517377C3F6B8F37E59514C3B12F8AACDEDDA4DFC49BE5710101534CD6FB6DE15B50F11A09472AABA727F0C49D9CB906B158030065F48EB3625E010CEC1D511D0053474B11E6A4F01C0D6EF1B
310
ED3A944FDEC70E0DDCDC756C86545910E0DAE3BE3AA9A404574C2995CD5CAF9549226BC94B4F4F0F5F9086F418F6B32346464610D8BC7391D3C3A3CCF04CFC1FB2A3A3170E369511868F14EEA4E5E438CC73DB1F3248AA94B6B2FF33B222FF3D1E7BF146CAD229770158063BCE4F5391964DF62F7E52A7BE0EEA829C9E13C4
310
C147D6F93FE59E111DAB5E4594D6F3CD1AD375EE039930EFE5AF2BB2D41C83C7DABD8C659BAFBE8FAB392CA634F3D15C1D945DB4588D2B0824A4EC928AAC565557CA2F0DAA588CA5BE30B3A8004F7BF005E96CBF891D7F18112A3619FDF530DC8AA64954258E1811789B5189B49B4EB53F5F89F7D37523894F3EB57B373763
310
C91E502F52CC99EB7BDDF933FC324C4FFC2561DFFA7339FAFDD0A4BFBE6D3A8FF9ED1FC49898139864602458968913181918F719CCF5A68B2EE9C1FF050E34E63107003B8120FA982C21B30A874E4F5E4B38D5A8290C4B8D9BE48A0BE31EA995BDC37AC6DE90BA17D259DEF53605D55922FEB1855D915B659FBEB350EE0DFB
310
2F9F766E1C84CC8964B75D08667445EAB966015F63A18A9E0A325C1B3DC628C0D3CB60F767FA93CC65F25458BD23C3B312716E5F40E5858AC06EBA9AB14F95DB99147B832069201541D09A0D856E12C629CF32683760EE855537D1901988D5EBC156676C7DD51D7207CF3267AF1D76C2AD867315E44618015313A98B19941C
310
696FED3461CAA9B5415F918556D7802EDACEFD6B2E45853A9735DFC9DBF7E440F9319F8B6805A973BCCDC76C069A9144E51F187EDCC12FC31B5DEAAF0A76137199B106EC84ADA6B6EE697D4E6A96E007417F4E880E8B1E89B4BCE9D81EF611E2ED8F0C1A6C25F620FAFAAB656A7C42D464880E8AFAB0E0FC8EA38CA9A8AEEA
310
EE3E4648BA4680270A89743CDD3E6C6CBF34B7B640EFA285ABC7EA0A1E28F3CC963D114A80123EE66D0AF7D5380EB41909B605AB4765B709B808590458157E69BA1378FEC4B48CAF6A730E3BE3C5EF2DD1A5EAF94B1DDE50CEB55DDFD7EE9A16747FA4B223359FB1FCC69E1194892BABB93A1D5C4E807AC0EA2E30180811E7
310
7A2291F6E7F7FAA5E0F60215BC6024E48DE436C511F0628B8CA189982D4D83CCA17D305A7E923C37941CFDFDCD93ACAF735EF5F0E61BBD3E6C41A59B242790D3A3BAC7064DCD89AA2E37214EC839820949D5CAA31E240D2948E48F690298974A96BA9A8432BC90F5071D6537C9666EA4564796B7AFFFA548077BEEA75F6308
310
3435074BA182F3699557397F71548383FDA8CA34D99B981E72835ECDA5DDDC151315173D05A21F651AAF8524E88209E2E7A737ED1045800CE3390050BCFB8BE588DF111617874C62575039CA588EEFDEFEFE319B739DE2EDC147092A262611E159650E787917885EF08F1F51B8F2D8A71D60B58B190FEF9541A1BE94BC19FE
310
A50784DA1419FE4B0FB51B8D36B5FF8E1286FD8AF42B91E59A5F1CC4D60174E764045FD8C57B18209B217F89A62252BD20BE0E63E12B8E8F029FE19E0E8D0870F58721A557082250D5424F7909369376E41666C0EE77CD87CB283F661D5FB6D0DA023CB67320A20DC7BE661E9E1BFE5463085C557DA1FF9BE835733766C3D1
310
39F2CF9E2208873AD0EB4814DE9E6BF2CAF81614D4D43906ED1C05A3265CABBFE192770FC2F64F940CB6B17B5F166F133C9AEEAD2641807C3E69515171DD74C4A85311513D6EC9530B3B601B6BA3EBFF3B5C3D2F7D69765141E345F75433953D013ADDF8F6AA7DC3F4A7563FE5C7D367937E2900D7EAD0F9FC9A4A1A9B5BDF
310
1FEF08532660C01C5D6DE22199AA774383E306DAB87E301ABB7D213887F9869D4942D0D71E94B27EDF216A318BD488D45DF84529EF575AF3C3938C0AAA0215B01994153E2054A0B894DA5C784980633AAD48576957CF4AEAEAFADC7C587368551C73DBE1E57C58AC713303A8BFC258BD04B51724459FF9E24C03A81E0E0679
310
CEB9B348C0DC998FEB9C6D6EFA77D247CC8F92D3848599ED89A23218D0636465AD1CEEB7DC140D7426F83491C4E8E8281C2FB35240918FFECE880CA2A42D70E8B20B34DF5221C7DB0CF90ECCB9C745B37A47E9B716FF7A97B7A252C1F3814DC7B1E1A7F72B8751D524EF7CAE45B0C73B3BE7D08ED39781B380DDFC9AA4A474
310
9C9493DB5BAD07A6EA6C092FBD0E85DB004DF06B8C9D3089C5320187E4CE1846158C7EA7DDAE8AD9AFFF21AA3A1026BB06A259845E8232DEE62811A4DA9CEAB3A4887320B76E2AE5615EAB7BDF738CBDD01F1E64064BC13D9EC53576751CA8CACD58B3CEB0E6CA585BD089B2A59B9FC101403387AADBDBE70586B93D64BF3A
310
D4453EF9C3B6A93817E8346991798601344F79A83C51F3D50F7BF2683A3605F51A72449489E0EE6169C749C60B1035651103AEE24D24E51A759C840DD3FC6504DA6FE107510E447B43461C79D22970B75DE5E1BD3007D1AFC619A4A4A69B5626AF5E9B8374E20677F77E2F8E73DF868E8BEC7EBA7B6A75EEF7205E1AB9486C
310
B642741D6E03FF13FCCEDB1C4AC129886268B01CDF4B124AF797CF784F3C6DEC97A17D4B558070A0F1C04DA4FF9BDBF34159AEFE958479824B3F58EBD1E19088A2AFDE501B6F2052368A3FD0E650A179EFAB1561E1D27527077136E652676C3670F42DCB3352F48F6BC86D2C3B0051727E41A0A4DC6CE2BE9D47F5CAA2935A
310
3C0539AF080665997194ABECD723B08129CC5B6B21D2E7D54CD4D12610E7E9FB8306771A89576C7A982002775ED44F3F744CF21EEBB27A631671D921938AAEE3EB0D19CD1E083727F607823E817BF599DCED5394E37EEBC2E88782E638920CA641EF74D4CDFCDEF06F4278ECB18E31E7E9876F2D783C8BF429C75395F57E98
310
C2B495A3DA077EB3AC3C158608B6B57FE3EA48484D9A480096FCEE0DE880950E7E5A5714131C5C41AAA29FD19AE81AC145FA1B9E85C7169A5AB837B213493DF7E9AA4B5FBF9CDEB36EBD21EF1181B7CF7366AB2A951D01E37AF4EB835D1BE8C117CFBE7625D2EBCDB0B20C5A4B45CED0BCDE3EE8DA9DA78C2E21DEAAFFD119
310
7E463C33CC6A80FB785669B856EFF7A8CCCA2841B5A5369173320B1170C368B2748D81062EA0296E5E2D95D7667A4A46D98A6FF475C76AAB0A8C8D45E226FAFC9FE0133EA9F60111F99CA81ACE03A1D14C89E8B0D69079C91464FA1D99E651D0EAF606F345C42A8A1AA9BA391031582B96D5B4176A77AADB01F12FD298A75D
310
EEBB2C82F0B8650E880722F8DDD90C56A7A058E5FDEF1AC93545BA27367C76F5D8F9690CB6F8DAE141EDD7971F0FB548A2AE435F224D6E5954CA155512F7332029D5A1230854B79F258EC5FFDB09F5F6343A8EB193229B7F7E79B3E48F8E183860B38C8269D1B53738FF1E0BACF6AADA6D4869E9DE708E79B5DADCC09B1BC7
310
6F649731CFAF59A83FD8BAE4C749D66FA87A3810D4D62FFE826FA400C0F325D2BC0F3CA35F5847B82A2ACC7961745C823E4D863D54460AF792CE6F79B5C7A33B25C3AEA6CDE15A919B6367D781E9D44F61BF828672594A3E1D9EDD6DF179A81F27EAC05B936575D73E05C209DDD2115CFB705DF9BBF3C911589B3640735E9E
310
618FC9C36A7326C82B2205E244C55D56FDB9D5DC93CE958D4BF8174D2B3DA54CB3C09F2C2A6DFF73D23B2197355761AD421EC581284A7EF8DE2CE3497C0C804D49B41DFD6A7360844E5BEFFB495CFCDB97A4595911CDBA623274CE852B5E278AF0BEB1770E9D37CD977B2766A7DED0E94B840E1E95E8C77DE5CB6354AF7871
310
427C28ADBEEF7BA0A28E19DE9ACD75F379FE373EAE6DDDAE3834692F9C2B03B4FCA8FCA9ABE8EEEBEBB725B88A7C90941E850682CA04061A7DF0CE82ED49BFAFFD42C309818FAE14755CAAE78B0F73243ECCCAD7DF58FCB9CDFAE7A4D3E6671A613639130D056C8383C8F4FCF4808C331E544DD26E4755D09EA05253B3049A
310
1E32587CC25D72E073E2CD96D04A71BBCB0038FEC3F53D254199C3CDC67CD66640269431860225392B2CB3ECD0B4498AAE78BA1994246AE1EE78F2EDFB79F6C6CB6B5E279C4D373FBC21CB2698C9ACBBEB6A4BB6B39E16AB0E421CCBFC7654D81ED86022F9BB522146F9F4772E2D0E4FA70120C95A85A417BF5078B232F475
310
4363EB1750B2AC2148EB46B1EA72AD9B4D23ADCBC589D70106C3EC2ABEEED84DFE28E718C6C83502C28E9FDD3B09DA0A6F6F7B72B706A31C9E2A331EE70DA56A083D2177BFD63C55B11D8D949FAFCF90B23A1E24B9B5018B9A17E99F2890EC302F330FE7936E2C23F0D237EC8916F5166AB84B62A21BB0B950146962D754F9
310
2CC2C8877BED8FC7B7B25726DD19545392570B3A2C66B58F027BEF412E552D12A588C4A3CC5C3193FCB3485EFFF700D0B9EEC077754A33DC1FB9E25AF814628F91DDFECB667D3F7690803F38D13F8AE39353523BB08FC6760144AFA2CE28236F65EDBB3D5F59A57D612B99E3D7E5F8A851666BF9B5A6658EFC96EEB37A378A
310
BB0EB3FDDF1303AF32C41BD1C8560745D7BD81066B0D6313359CF488563D3BA3F8E2185D1FAA3EBA1397C9D0E3DD232180A4DCADB6AF25DB3AC3CC26589C8239E66E81547BC7E2F328F9884764CA37EB5DBE390DFC03A5246B456A7C3684C4377D0EEF9A350680FA9A077E8B2957B489E09AB1AD41316944C2254B5984830F
310
691C93CAA767EECF976FA5647538830B5E63236A6F0365C1E0F3E327F24FE35EDDBD7360B0F7374837409F7A6311BECC12B7026D4FA1AE204FA3F5FE904B1F420C7A9044AE58E403E7C4848E7DA25DC9EDAC79DD756FAA26B9EA83ACE8A214A2612A22AFA19DAE7DBAC5F8CDE1292A485F98DAC731A29FE01A3966E96BCB9F
310
B5A4C8830E1B9AF0C54B87FBE221A097036E5D28D1F869F810C06A9BB0AC0612F69AEBAF893C6E7AD59460208BAB3A6B09CA4F6BDDAB8CF0D1F84B72487498395A70DCD754796E271099A567A55CF242BBED64696378BB6CF25EF0FCDB589F3A82F1116D010A9AB9FA4358809EE0C973A2B4229BAA876A70B03AB49CBA7FBE
310
71DB1832FFD32F9BF2C8E98075CACAFB36921235D0F552B6A67E94E094097A5D7DF681B40623DA535ADA7A9AD8E9A62407D7C9A5AE51D62A17A83A23728DE86BB56115804D3F2675F2C6B87541A0FC497BF0CA86420F558C9859EBE9FAD62747E323E3AADC03FDCDDFE7407B09DA90B44E3185723C5381EAEF589765E2F7A0
310
99BA46695BAD60CEF3491B8A171F5F56444F7CE9455312C3498C74173AEA0214EC029833B34B650CBB5A5508D5091665309642791708ECF27CF11DB3D797D6CFE474453BD4BFADB768094B2147814D81C7CBAF8228DCAF5564B5891F5EF6A860EB2E323CB82AB868D8EA048880D63B0DE5341F1B3D53297B928A11E15F25E5
310
148990F710747C3509ED14909C552EBE3973246FCE55D00564D8310BC3EBC5085D08D806799B77D6C57FDF5E55837F9E934F09C03C729271B64F12D0A9F9E938107CAF7BF1EC8CF1BB9B42363D33070F4CACB425E605DDB0A34A12BB936DE286B9887A4E2E558F0886498BFF49C311D96C277CF6A9FC0D75AD0ECC5226D7E0
310
E3572012E56D7FDE4410CEC7A6D0F997F225A2055B8B92E3956E875AE4993CB3D4C9063AF98FD45E1BAB165640A43439A2C9181A7C355B297C0A0CCFFAE19B6FA3C2BA238A885FBC98B8F6DAF4B94B97304878DF4D8BFF6A4AEDF79E90ED4E68F00CD7299F4E0D83E35601AF0CBEF18C1E870E74758FA91F5131075004DB3C
310
FCF09AE1DABC11957FD9808C92E8A678CE9DBE40DDA0E0D1D505AAFBCBA208232BFB6FB3704E8985E61ADE53DE74152F5C7DE74B1DEDCD37DC3E8FB30D7EBA8B9EFFC3606BF90B8D438279CB7709FC7C00D327F41817EEA71CD9E49FE9C8C9A81C70915D9F0F15958EC5AA4C3BBFAF46986B90F188BDB24B89DE3C6F29EC3E
310
6F66D84856EE96A35E657CA41B41EFD8DBFA16AD6E91439EA92B40B21C053249F51AE50EB0B24C770FFAF40DF12C8436366819C48E36547D4E7B72FE2BBF10828583057814A668BDF183F6B2E58DFB151103E56303E63D00F39C27C4661605DB644D19175D02E3F0241E8FC3458D17AAAADB117CE9EEA690D0DB01E634878C
310
04C2C9310B69FCAB831151E3AD293BEF6E46B0ABCECB50F5939B39C613D41E81FAE8D34CAE3C4566B761D37185FE864AC32FCB71AEF39DAA5BAB88609BB980CD2F07A8F941653B529567726E2B2A58D079DD57E1E5E31426CF184A04D7B03B985F276D47406AF276FE32E3328BA866EB1FD39BEF57863A317634AA5FE46740
310
9B3873F5069EF0D71AF00AD189D17BA1974ECDB2D623E9E14086386A6AAB5807825C37B015BFE892AFD154920EC437EB945D958E18622E1E0FE2FA06557CE4BB9BBD05A2D40E774DA2B65473791E314B7D6C886820B2FCFE4AA272B3B8B15E7344A145E8AF919B5454D89D36D413E87211186BF6F645E5EC94DCCE8E1C7990
310
22E4EC9BC86D7A0F2AFB1FC4B2CE48F84B3F49ECE65BAD24CADCC07EFF39AB06BE9E6B27A059938EA7208838455383DDBCFCD967DDE4650EF92A14FF933C975DB20BD7FEEBC4487576485963D757D16340D9599FEB362F775F38CA4185A86F74B629C81B133644A3B18FD056E997E0734F9BE26D11C0AAFC669E2AC9FC41D2
310
81F8B2E1C35AE27BCE05F3DA295488096688719D974DF1B5D182DB7792288697F8763CFB43562C1CDEE11C4AABD5C22B6E33F6F389CFC3477C5919DC0D533F8A7A1846B7ADB60ABDC26C43D0CFC8910B7C15EE22675BD02702ED39DB77A87A192CA7A543E6205B979B9F5A6B512A3CA799E198B2D5797C0AF8D1D872CA455D
310
4D431A7879D4DD76110B5FF7F4176B54477A9EB5E4A5D11214FDA585F0382751D8E2582BA5D2075053298FEB8F1537304E32CB22C2E2B693DC0A760B1DFCA751BDC445AFDCBB12820ED85F6D5298933C7EF1211E9E057684056CDA3FEF3BB6052355E162DF27C59E965A8DDB7F9437EB72CDDA3A090DE65A5B2F50326247B7
310
EC67B73ACC7047FC9B353D6EE990F772207C6EC52B39DC2F3C0754821DAB559F7C1809C7D0DD5B0499D0442E0A6E391B3D5DB46D11E731E6794EC77523FBDAA242ED67F9FA1FB684255671F63C9BCFE6E7E896D51001A6113EF2298BA494E0B0980D1FA5B9D60796554C02256B1E0345FB7C6186B6A19D2DCA270416262845
310
FA4F42DB5D9B0A0B6F07FCA2E56C242522E001E0CEB734AF310FC8BFB57E38E03AACE93B3326A2197891E68452B26A6307FDABFEE0223D3C03C3C73D2D5BC054C8311F12004CAE488E5C29287F8156A2CAA4AD0D7BE6B97264E4139F437CE73ADF52E5134C52B819777C18B323A5924E4F67AFD13B1CDC3A61793A79FAF5C0
310
CEB718E441071E797C6DCCB9EFCF7E4A1E9F3DF3C2F9C9E8294E9586868788C972857FB0556D7A26941A7EEB9B580AD78EC40B85DC906B4120A563CA3B87797ED612D3B035962BB75F6515A393F4CB057F564CDF54F2E5A024514E6A1F901DB80C7E70B1FC05E356A7E72FABF4775B3E3FB8F70A2A8E7B6A94542BB3041579
310
78CCC999E707A29CC795E67A59CC546A5D47B368954CA7B6E75EC9E1F6FC73CE3B4F71F8CB1A6B15923D61EAAEB14626AAA9D04A26EB9C66CD1BE86CA31A5D8703DE04CD1EBCE4F5CCB62F93909AD11E55799A781A956ED27D3E738F4538CB04ADABC7DAEF20BC35BA6A90BCC1DC61BA05F20D8832FFB9BC9B15E2DB838A0A
310
FBB7E0C82A562127E0446894F427794C3037186F622BF24DE1B00AA10A23BFA47B2A180D6DA5AD6F7326FEB8C100C2D7142EB2A0B2A9D1008A09BA343D70E054AB69E2A7EDB783CBD92537FAF4A44D1296AC2792729104B3276C276C951D0CF3CF3F1E6B017720A7B8505A5FF9589365979678C36F1BAF759EAF57C60F1FF5
310
FE9DCF5F8E764FF25A2D06CF25117A8FED51884C13B2B750DB0E4F5E3D64124FCF11F0AD8F1CC3B3DA4B38ED22BF1CB2585EE6BFEBBA63FBFD44F9537B9B37BDD6B358720F98A8125AED4349CCFEB0E135F19E208A04CA7E2B10711185D72E381F448036EF57C9F874E54A971CA37A639E986AC0226DC5AA00D5B14FEA9192
310
234B3DE617814FC221C92F33F1D392F297731B567FD98FD91D989379AF567A65B8ADF177591DB90FBEA99BF4ED11B16E50A0AB1DBF1156D034BBE04D69D08F939D8E92BF525A1DDAFF80ECBC95D8F45D3FDD289FD23F7D8B452F8EBB34EC082DEEE68E18EDDF072060FAD2AB1504DD4879BF67099FC58F6E9DEFBF645D1633
310
4A3E9A127C6F1AF6132CF287E433B43A0EE93812B4AA0B194E03EE3FF91EF9C6ED0074A2F6EB18A96A7C9890B1FCDA1F2095E944DB911ED54C60DF16FB74C8CE9BDC7C54C4F14078CF73C2FFF1F1BBCCD7CF64F71407EA1683DBC410D226627F66E509060D5C0AFD611DE681D509DB8DD12FB1265B03C6F5C55FF4C30BD941
310
87FF692B4F152982502F193098A789526A038AB529A52BC0DC4FB6285CBAC10A8B8DB75DCD9BDABBB221E27D1F8DA9F5EE5926A1C8AA9BA9BC09239C6A7F12914EA3B59EFF7AAEC3FFCCE56F1C5C2980AD072793527565E774F4631DB178CEEC691B1F367BEA0CF2907E1D6B854D527065979DDEF002D8B2ACEA7CE21AE297
310
737EDE1D45B31233B73FEA35BCFDD0B09721FDBAF6432681F2FD10C3E9EFB246FD6E854B344ACC9D8A0EEF876A7314B49B6A499FC650B099D650DBFEC7638ADFD245E2B7839DA5AC5F7D5623FC0ECEEC8653FC9B2BDD1AD4D00A566FBA7186DD3C9CD26512551637498CADB950FEC71ADB9A5524285DE328B8EC7EC75D2345
310
AEC6A27C42AF6D9B92155315C80DBFCABBB7DA0FAE425C4FB896B15C9BFAC4FE67DF5A23D30C93DA4D8F36FB15D100050DA6062E22AEC5F4DAC4F6FEEF97AE05DE63C6D38F9E068A20BC5E3B6BCD75320C5090924E7F93640A7735B1A43451C2D91EE62C6238B797349E59890AF3A520DF4A87095F3ABEC2E61F0593416CE4
310
6CDCBE0E00E2523FCCD04408588B5B6C9DB6459C786CE378770B54F51DA3A5E1DF2A3349BEAAC234A6CF8993B598B3B25B4B113E353A4D750FA7534749430F3EBF2512E7EA3FD43C6AB9A1F765A58463B306721A15D224FAFE8C6F5E3432D57EE697DA0DD5A9D4866A8BCCAAA9DFF1F06047851408FEC060471D0E3EB86BFA
310
F46E4B5E60311DC3E3CEA147C75CF971BE74689507154FF2D2E92F15CDB2B9182B11459FD8ACAC5A85F174BC94A7F4EE4C4F5CAFA7C02E37BF0BC77B7DCD0C047BC316F562A01A441AFA7931CC84A28CB9F4AA367EB515778F29BFE61195FA671F4352E5E46E3A64773F1F76EE5EB36D7BCE9BCEAD837A4D77F8DB8C92AEEF
310
6711920D7C7D0F76B0FD0EB7AB83724CD35BCA7D36DDDF5FBB7FF6F04A91F3E2BB3B8F1A43CD659639507FF6331C5F697BCC782AE57D757A27D97F1AB9E0AEDB43F92F1B2AACDF5FEC8ADBAF9F814E2027003BA2F9E144B1938A7A04050AE5D953B82C45619165C813A10E76DD6906B3C16438064D14CDA713AEC420034613
310
E1AC7241904A49FBF87409AFB1FCB9B72FE7933A87D8FBEDACECE4EDCF6A4FE9FB94D5DEB74FAB7CFEAE17EE965DF980DCCA2D04134994F9A2E94D2265DA4FE6AA7B7AC15FACAC2B5ABBCD7DFF542C5314FDAB2E1B9D8B65220B8E2B638BE008E8DCA22678C820C5053664D15E89F2D735B51A84955E81A443545E9FF787BE
310
0FA700A76D136C27DA179A7C6E8939E01BE756E19CB292798063D8B97F44E8A27BCF3A614FEB8BE974A718E86F7EC99B53CA35FA24F61F2B07266684623A3D4CF073E511F3A10A8FDAFAF0078C577F4DF9D339FE7862E5FA47CF4344209E5BF76D783B1B48E152AD281B15FCB934DCDA49CEC5706B1EE8B460F435324A5CAD
310
154725E21AB8044B75A557A79F6C807B9340AA3D92503E866F4274412926C8C504E4D5EF8C0E68DD0B028781A6B4054F11CF18941F101C57CCC796773ABC8DED9CD91FE5788806C05E548895354AEAC96546D55B0E94A59F148D061F42AA398D822CDECA4CDE79E13469BDCC44FDC990F366BA5978C15F97ED80CBFD73B0CD
310
9B8B83A4F6845BDFBFAF034019473FB9A63BD55D3A4A7284757071574029A4D016DCCBE95DD679EF3C4880BF169422F8C89B68A988D2B13793CAED4F74DE7486C72DC94DF46B8E93D8E02EFCB1FF9B3BA10C8AE7F653DF94F4AF466CDDCEF5776687F7C4C14B63E4EED1719DC2EC482D7DBCC7AE518CDE3D5FF86D39000EC3
310
673C0044E1D308BF05F74D1B5F033A7D1BE7F74BC55BBE3E4A20F920946CA0271EB17BD2B80E5660ACB8A29A79F5E4BBA49D4D945B6EEF4A7EFEAA65E5555BBB57A7E15D2F83C69F30BBB978D2B39F1F26FC097424D39BB33CA3D87ABF64E307938B685BAD44F71556A30B7E712CA4FE600613C3E554B69ADE949A7CFE214D
310
F1FFF05CB82151EC6FC31950239F94CF7AD39DC473F6EA356E5EC2C4EFA04383CEFE985A127484366FBEE3C0EC4FEA363E4F6632AE781392FD45D67B63FB8DF70E82734F431FD3443172A0E30A83D60982D55FA6A2CF86DBA8382502ACC6CDEF3B907982EED1160E14863FA242F9757347E1544275CCDCF71ECD5F8621CBEA
310
326B8BA884AD7F825781923E66971F04010D574C541D8427A438A37EEF8AF88240EED7362C953F5A81DE2D56109CDE2524EA0F5D2F87308C0C47BD97AD605878AB8589E17CA83930CB5E0DCCD75853D68B1AB136594926DE426C367428E9334AFAFF90ECE221BB5DC9E5BB53D2CDEF954EAA9CD814F0E5725F1965DD458E5F
310
8487683AD86B9D0076BE3EE91EB1CECC5331A67A3F79D8B27587C12EC2A6A70474749F27B4C0BBAFB94B34189E88DC18964BE4121B9137FD516C7755356E50D6714E31ACD222621EBBCD1CFF81D87479056A9DA0E0B8EA19D24CF937DA89F78E8650CCBDC110AAB6C4E46DCBFD0446BA9E2060E81F314AC2031E88135E5476
310
AC0160EF5C0DD2EEF1B8B5CB2D198BE9A554A9093B5F7D7E4B5407DDFCA1D9C152FD97F55BFFFDFE802954DFEC8995B983E28AC92F1971E28F531DC407A1280EB125F64A72E617EFB27DFBCEDCDA2D6F2BDADA36873EE46B9BE1782998C63DA7182BC383FB6FD15DA472B175D7E8B4FC88F38D6E07FEAA3FA3CBB8F6B449EC
310
F14D2175E5C5CCA3A42ABF24CA6C9395AF74535F4DDB38CB84F56614B0FD32D7E19CA5CF988DB4449C40E23DF2B16772594554579094450F56F253CD25EA7F77366FB1CFE79696C428BB64D5A41E986189427E5E4D7E2DAE3D5BB4972B3DC44EAABDDDD63A2264ECFA5C786EB0EE1FDC5BE34FA0F08376869FD1E61EA06CAE
310
15191135445EE8F0394161C3266A596AA035572BB0C8876180D8B9C77D307DF9DCDF7365ABDA6F3A2366436457A4DFC1F259666569A9E4A79C817BDD5610E5200FCE894A358EC72858D50EF67545DA81C6FACE3D457BAF70367E1E6BDD9A952FB4F56247F58F523B97E640246051A72F79BE42FFA0B3187F63097F91C48B86
310
8586F714B0EBD5A00A8412C1236E1298F60C72BE6C96B82B404CADAA304AE9F303176B14BA53FBC2D5E86377E35542019E24D97B96A49B2C0E5006E7795954DEAF5DA58958839043C6C70BD3B1B33B6DC5C31316D8A6923F142E26F6711A2258AF977DDF1F970ECC4F1F2B434B96D81BEB6E89BF3BBB3C7C8CC80505070723
310
D6D7D7D3C8CA27CA164A26024FED94B12A86031867241DA53D929636DA600F050BC40CE48B8BA03D69224720DEE2ED2127390BDF5E6EA64527BBD4C4C63FA76BB801FEEC0E61218EC98A8A86CD8313781617877E66692839B9468CF4DB8E50A73986E558E309C0D6F676F921BE02F1185454DC75B111572FF9D27D85EA14C0
310
5AD7271225B391C4275659CA4A43759D0BA44639BE4C30A84DB7F67A41399FB95CBF923B1B1672ABC807C1590557FB18D811983FA97F5E609516D62281D38B1281F68FC75528C35E4CD7DF0F7DBB5E5DD69C414EBEA2F4A5B241B996BA77AE6C772E367408C633EA3E438B68563EA8BE7667F3A4C4FDEEA52ABD78A2820F44
310
3B7914A15F180018D231E64519C56A12F6CA7C8DAE18F06F6B769DBF92329EF6A5D18FBCE600F36BD8E8198DE5CDAA96181F3A756EBA5501CEE58F497EA4F418A2B82565B9BCC611713C0B708CCA1F398B78C5F7D03B3437CC18F13061F55C7BEDADD5ACB1DB0E36D3CE47FF6EA1A563A57E9649EA5D14D1A50EAA45746338
310
1C073777EF1600607BAF6428A7DDC079D47A204EF1E1F1F0589FB054D45E02CE623B3823C317C601E589E22B1E88B448524B86A82828E32345EC18AE17214B42F8C41C6D428016D9BA31DDCB47572561E5A402E5BA4FCE55F78AF7268524AA04130F3A20BA5D1E9F9948EA48FC8F5314FDB35E21898198060034ACE5E3E2BB
310
CA34092518F275190AF65F45867FF0900AA4B81F25427414C372BF51DC29AA855C5428EE1EEDD6B849AD60F6E73475C2D2523F8A2772C840A478DED18A8C5C91B085F255DC4F54EA7AA8947354FD17ECF8FB3B4A0DE7B483CAF3A1165EE05BBA413E5C1FEF3DE1D6B8F2F3F3251C17D9FCAB48A9AAF63AC773A0E413BBC46A
310
9ADF84A566FC920E4D8C52C9769EE3301CADEEEDD92B312E02E2A7E35B7F1E7D203FE5A7D75578B06E99D0E46FFADB8FDA17ED8880390DA29094202D6F645F76F6F96409CDA05495A96E84B04A00D1A6C6C81D7F3DE9376E828CCF144EE50E364ACCE7237EA0BFB5607ED1AC3CFE73794E5B61739D14DF1743441B1AC98F00
310
ECEDE9E7301FA29755FBEFA68C91EF2B314CF510537EF1ABFC9A762496280B546F5EDAAF8A5B387D469FC9A878A92828C88608453ACEC6094DCA54111E7AD5B2663DFE2DD151B7F123B9F4FEF8EE36AB125FD7AD52A59B1B765B3E3F73E3F73DEA93875004D2AFFE3CDE9493B87A9904DD052028949041A91DC0E1BA47BA71
310
4343FD5B25E0A6A09503AFC17C790058A836A324FE31D7893512E28230332F153181C1E018E1124EBE1BA262AA428A518237D1EA7275E48C5C561BD19ED6912EDD8367DA0F31E40EEAE9683DA9257525AEA7B632B97119E17145A90231768A4F3B9120FF32E8319B015E3CBE26F1A754177D8185345817C096B0CE443A955D
310
13AC15E1FB5DEEA0239EC32A3C92241A237B0B02FFCB4F93CF2B02570C8D192E2F2A68CEEB42F12E6F8CEEFF46C251E22B4341C56FB08CCE550E7A9D6F4D6564B9EA52A83D5BF2C6E03FA19D2775E15A8A7ACF30A13C259EE7F5EF2AC3BA354F1500E1A07FC63FB4686E2F12EC69719F9ECF5FE3F35598DF2CE944008CE78F
310
0911BA5BE5D0A34E0098FF038669C26030BA9B300303039852A8F6F496341737CA7E0D2E3AAA36DE0A70AA7D9CA0D54D9AD84B18A44C9E625475E1C97B93BEBB38DCE7D227E67A2D00F531436136355F243D1FC0D712C5765754FA22FCFFAE97919161F46D6E61ACB37D83777B385889770B50765B127768443A5C4D3A4E35
310
A3151111F146B7CA116F918A049F1C272F2CD7976C69A0068773451659A97E0F4A08FE604C3FF6CE7385DB19F4D3ABC8A0D80DA8A42096AC377DB49382B36E270B6FA7570188B4B7D1DDDDA82ACA487CCA5D38BD3BD039ADBAFA4ACFF27809239B722081E2EB9F145320553D183F28471C388BC8814E5045676767AB58A8E7
310
2D1CED2CA731379515D2E533E4CF0B39DFC625F97AC4836831A4DE330E87A8126FA17EBE583D614E71E22A8DBF2825599743E0640037303E8E1B1E8EA4E1ABFA4F62907B5E4E0E5DCFDAB417C36C6848A2B8D15F1E505434C0707E16B1CFC2A1C36A42BBF55734F8F4301DDC2A5110CEE8C0747F69519265012A2174BF4E95
310
5ECD4FDE095A3ABC70536B7AD0B9D7892F81287D667C108703C9B66A221E9A0929D030008F77FF6F5D2108EF5706FC87A3069B976F7C9FC3239D13D283CDEA83597461079FEEE049B0F392889898B7D87D31F8D60ED7B56B91823A8E4EDDB36C6172ECEE42BD42B12CD67994FA0F0DFAE9389356F4CD4425A4B8AA55CBF7EC
310
D585C6A2C2316791E43D5C06841ADBB226A87FD61515FFBB0167B74E56BD7F3E90A57A97FEDCBDF483A0D6699A8C0849CAEB4947FAA90D8E332D9DEBD9F4738C37DA0CAF9CF3DAA68BCB67C420459C7A64498D6E848E5CADE92BB6901F607AA331104A67F7CD650EE169B1DAE94D2C31C2F993632259B6957E246EFE4C5481
310
107B07118607700040E5812A2A2A38DA0076875258C753F60E0F2662C748EDD5F3F3686B8FC3BD6FE631ECCAA1E8B1C1E565AD117E54893E79F4672E32F9E46B2A183DFDCF3EECB4D4D077DBEA0DA254D256045109670050129E9B9B1A9E4A11344D61497A992778095151510C4BB7EF2009B63AA4360635312E4CF668B7E0
310
D3D85A8688E2BD83B569439892ADB63461930D428E0DE42E4AC57CE48DA5CC1449530D8BD3D6A0F08DF20C8E8F570F2CFFFCEA286E30969B4654D498A58D9DA782E19FE3F002181838925592C4A1EF0B332D88B61A92C644547BED490D3A42CFFAB70E36D961F694F6307F72FF15A1C79D5B1B5CEFD353D9E2B52566DEC8F8
310
F09CB3E8359C0F68EBBB7898243E34E12A015B2685AB303C04D3A9E00671FF3DFF0A184E4A2ABEB2B666AF5B3A209C73D8EF29DCDB069C9F391EEE9DD0F74C7BCDE16F8F02E3B8816122BBEB50665775B600549D8BB33A54A6BF940C028118BC6878C79958D6784F9DEAA6E26748386FFAF8D0D0101E2847B6563F5D8DC1D7
310
8F787BE00E2C941AE12148D4A81599FE8F68D4DA5CDED75530ADE138240300EE13B0FC13A1687FED6774662C05A2B7DFB186732F0D7A93545D8B0A6390AE5054D9CB582DA846D7A061B3358B45E2B52DDE63E114397EDB7E09233A579155D795BE76102CF277F4DF8B188C4F2879BEAE3C08347124BF9ED23B128259FE107D
310
31E34A652F090B30B39E0D9AF917B76A2806135621A8A60681F16AF216514BBD02711585B5B1AE823F4B2D0369EA5B6BCB863072727FFC871CA6C9AB79A814D989057E9470A3D238BC87CBB4A0EA49AFE2B86F22E499793CAA9047080450166BDC357524561E258C77CB697F1ABB32562CF87C3B7AA12F911EF19FB3E5C022
310
22E887D08202A60A17151F5E053A86B437771088B4FEE14D652C43E8D939995D34545E12E2FF93D4E366EAD25F10CB7DED141563C3D0C447AF06078A91135FD4B9611583CB4BF3BD167F2399CEAB0E0100F8FFC305F00F1711717173138B4B48C83022295DE657EFEDD97F238ECA80F528AFB4F8D67AD4E2594B9A3AA86D74
310
87EFC313BA95745C186F0CDD84CC12DC9CB0424B42203D351FD9C0A3AF10CC7F388E0329279087386421F194F4A29464C1DEF7EF8BE515E4A199DCD5B909342598D8FE6A231F71336248D5CEC5454455C7BE383B3BC7B260FED27F703FDC39A170F3827239102F59D4DEE7FEF82EAA1A5E4BA94DCC4CC44E7E2EDE20F24244
310
E4454369D2E87C3F823F193FD4FD27E1C23984B01898D15ABC20711A8A558054951A6AE280096BA36CBA439603B7B0B4C45F248C14B2383B4B5CD8ECECE4FF859AD4A6CA2326D020EF090F4041D28DB66E5256B56232CC52829DE8060BAE6BBF37D4B7469B822454FE93210A3E8D15E69FFCF01123222611C51C4FD0A041A0
310
CFA2471CF6BE38D2B20FA4C3525B5B8B586759475CF80ADFE67A284AC24651E52B8E683D24C2622642F27E7C3C22783BCF63648BC398BD6CD0D9C97E7E7E3EACB6126DB7A6C1FD9F1031302EE67ED96F22B77C7CA0239BB324207559B105E4693EB26EC46182A92C9C0DBD24F29B31C5C5AC1F84300E0E17CEEAC15F5736FA
310
4A98971E2F1423BFCD68D4BBD5F86E74B40A369F39507C88FCDB35D2DD8DEBEA4AF999E23CF2816D204200DF6E611781B9884C1AC8888B4DE397320472959434323A5A36B22A8E1F721A270DF3BD65E4A31C11FF048AFB0D8B7B6881423793963A23CFCE935FC189ED36FAE35C46DA3574C979E4394BE52084F3081837BE03
310
3396D2EBD80F1F691B273F660D2B32FA27A33B1DE4ADA5F0FA4651511102DFA410DDA86E065272CA314D5249DF91B06BB92807B28EFD54F08F7B525252782CD276DD02E6B0319B13DF87B1F6361AD6B28FC0D711CF445429B9E5A433CD493051C49A9E03DDB1B147D880253514A5DED88009018620EE229101C041950E2D8A
310
A8E1F5F5438E0C0C0C60EEDEE9E3E0C051948C69F84BB7B2A48A1F3C8EB9E6864687F4F4F6F6E2FA87608ADAF9C5E117B7C1A737E710769DA1D15ECE6A84502AA855398712D5FB51BE92E4EF824969CE18278798AC303C2C7980DD2500ADF8FB1E6D6C2FAAFF9987178923334A244758BAA01A9A1B70FA5097D01E1CC2A58D
310
AD0EC94CE6430AA9B0C10D75E3C6BAC670EFBADEE1607739CE0FC18A2587E3EC3058562014C64219C69BC269082D5C2F4A659278D585755912176D78A1B641719C2A394CED495A1AC5D583FD2F5EDD93308EA7EAE8A6DD396598BDBD3D4CFED62D18A5BDFDE0DD5C80D1A89BA62697B131AE7CE9A6594138582F1B37D68F17
310
49AC7CB67A70695D48A4A056AC1FBD4E82358CEAE38F54B95A9016F9000F9879C0D9D131768635CA798895F27D6F1614F11F2838A83611AA51C9A3DDB539D42979C29F10465655C17BEC3E2760B80DCBF609198C7B171A531905F3EC218D696025975E986C6B4C666666787271F202805577DD5A3EF0CAFAF91B62DC4B2DB4
310
217A7606282F31D8DDBC290593BAA93EA6353AFA9939B877978481E15CFC9F2755CDC00C538F63A4BA3E80AE009B73CA0185687D339A507D165B74290D6EE46D5C58148F020C3668ABE9EF2F7549170DC80DB41FFC1D678FF19AEB10C7133832B104B80F691B3138F97A92D26E551F1F110400D45AC71A9B9AC41A1A1B1DAE
310
ED0B0810638EFFB511D46B121C6FEA0F38CD00E03CFFEB9713FE1F9C263E4DDEC160D0497FA9A132BA608584057FB15380825DE6C7FC3C667EE947D488A09898D8E939C4953BF4EC9836344D2CC6B2971B2A21A572B06096F4982D2CC7232D46E8EA69DC83722E267754D777F97F96D5DA74E1E75178084D0E70F12AD33E5F
310
71EF2AFA599B2BEBF60A5BE475F444F240CBFE8143C334E7ED9150FEEFEF7EB020C4DBED388DD1D6A167A76F3CBF119B578AE8CFA7736ACAFA4440A1C47185638A0D2F3EB5BDDEFDA958FB13CE4AA4923D5BF840392D45544329525749734866684BF7F8D9D54D892E19BCA9F829A0F8BFCBEEA6CFDFC61D74EA1A645ED7A1
310
FF241739F15694BD835B66FEC5677E40FE69BD3F91AE402F036537218A401CB0828604AD189E575015C6F3F6BBC8AC79CF6C70653847254B31551EFCBEB5978B9DB85D58D0FA41A9DFE9C624834AA04949D24B5AE6D299E072D152D12097920F14AA92C31C3B97E28B6C2E6E9C23D63043ECBBC0A60FDF5BD0C33C127EA8A3
310
308B8B6AFFEB28B4455BF6E7AF4FC6222728357EB8E46E85053E6A8843AB23295BF838ABDA94658FEF3F832F147046B4ACD6F7D48E8FCC9618582961C898D1C7A253C91BFECBDA6BA18A1FCF70755DCCEE2222F41B76D23CA98D0CB3D95F0CF66D57FFF65E2A90F5DF40FC3187621E981BD0BC1D992787212688976B94A8F0
310
C6EF646624B570B78E068826F87CE27041A95C9A4871FF65CC17FCB1639629AD6A9517000D63AC231F3D741CB8430777E7ECF80CE7A3F73C0F162F7E56AA71F4DA80A33CD6ACEE78E2C11FAC03DAFCE929B106F8F6B3ED2DC71FF994BD9CEF4E9A94896EF1B6E2B7B4978168BCF0847A3D2A4F1B0500B926E634B174548E9F
310
BAD27153FB5FC36799B1E6C7C38A94E1F9E996796D7B485E635D5287A2AE76FBD11A341DB3F8F810385BB7296391973DC6C37C452A9305AEBBE0CDB6C566DB59FE60C8E94B1FD090354BF51439FFD1B48D725228FFA88C84F686F547107A7A235665A4593B7C34D748C1AC8D56DD5DA861EEFBADDECBBD65117E65851F9035
310
1AEB65F0EFCFF4BCFEF24CB7A5879699FAC437A7AF9099186CF006BB923A59E37D7A36A29FD8D2CBB914A5E9D0A8FD212FBF796AE9A67958FF1D5D8B85F78F96219D4714EB919929241B6C018AAE0C02069F8D919961EC5DDFBFB7573E3AC8E08BFB7C8534BE6DE045B3CD63DBD71F7638BA2309CAE398EA3A7D8F98BBBC7A
310
EB367EFA5CFA27A9F8F2F52FE878058E6209C026453F8E7E8A237DFC389E9590F6059B397CFD65183BBF936E86896612A5B5FEE49DAC8455D026218AFEBEC12B3523A45B57B82C9C97E02ACFA1184DB18E48CF615DBF39C3CC6F0B4AE6BBEEA2E39D944E290302FA3DE33FA7E40296E2EF7BF1CD855BBECFAD0FD622BEE974
310
6FC4FDFDE545AE6E3BC234CADF83A0FB76DFB145BF3828AE3436368AC24989454F8FF70A177672C711CAA1A76107218CF948CA01F873520E7A2B118EBB161ABAD432932029628B6761590C98AB590C8C8C79798CE9F715BA696E839E9131A4BB68BE923F1747FBFF165331FFDD4D05997ACD168F12CA75348DAC04C7F509FE
310
83898A8B421181AF492861CE81E4A2DD0A30850CFA95E05F097FF70F9E777310D584A75BA7018922E271DAB1D785671157685B7D383D3E074DDB4F1E44EF04B07BAAC75A062077C54B9752C738C9D804D402E02851F3F89605AF189738C18C021D2139EAF72513824E10DDD3047BACC8521ED7E98B257D1166903B1B08FA6F
310
918FD7E162913FEC7D0EF4787E29C35FBA8C6E2C9C20E9AB30AE42CA2A01A090E7D010C1B5BF9CEE2A304BF3A987FB40D836979B79E18D70F257DA61E808472DD85B82761825779D6B90CAEB0F23360C6F80A7D7D77545E95B3DFF0CF96A827F9B5BCECD2C9698718417EF80FEEDEE938AFF55859D0D540B7FE09435583A6F
310
04874A0C7E8CF234DF4879722000167F5872CEC6BF3EF7E5A8CC8121E6A359227C8A29C95212F9F735BC72A887D56B8F309FC525BFB4FD767AAEC4AEFF249CFBBD2DE1AB9969A6155C7D8DABC307E47324C1F916C7BCFF40ABA5644E9FFB9238D19ADADA49D9610F01ABBA57E4DFCBDCCBB2B93C8953206C91DE01B0E2651A
310
6D6C31721915B31F7B7CBCE55466F6D70402788FA91D73BE4ADCBA99A35F17D6B83383704917D6833F0FA3CD45C926ADB8BC17999A4A0AFBCE2541F7B8CF4C2F5FBA611B3E626D64407CB32C122DFF4EF8674D6EDBB86C8F7C6A16D50FA685E2CCA34F8F7D1D8265BB0042E9D7F1F666F7BE5FAA5184DF58E12122A42EF02F
310
461B3F369AC746F96528AD208512AB56844CF75B97F352DF7995024FB02855385854F3798670D01CAC771AC3E1889EC25F61A20C1F8CAB46898817F9C47E2CDA1F286BF2F358298709FE567C91133E2638C8B53975E753EA8BFD3578B5F7186B7BF084EBA3F77BAC3132A5779902EC22AF2D2E79F42D324E083386DAEE9810
310
D1B44A5DAA54513C7A71E52A4AB9257D975B621308FE4D2141CC3DCFE946C154A3C1DFCCA7629EC69ACFA831634ADDA93C0388D2A9A2DDAFCF957C6995BCE7FBB6DC4EBAE79E63EB08E9A25F52F67076F7093CA545CA3053B5BF576DEAD4E0017143C5F759F32B2D6F145B52B67B48909B7C7FCA6586EE385A2189C16932CB
310
6DDFD9152AE317C430492A578ED27B72D85D40C7C93C097939E1B50F4D67F05334FE9DC362C30B7FF561B95259138ECFD9274C8D695C31B14D4EAA9F3D7FA8DDF652F8C5DEFA23284C799B7D94416DEE81E05A866302DC70192A5368EA65E1CED8BF107A1E2D3119A71E85DC1A7B0C1E93274CE04DD0F2ABC8AC7C987FDB00
310
2B6F81757B43502EF7A0D92E416494FAEEA4C9C090CD9557AA4D532F4996A272B94355C5A0E4974EEA9627476F30809B94D8D8D860062E02204643BEC7D0438AF800FC7E2B26955D595421E83C69E1A07E0E3122285835F014AD538188CF9737CE76D464A353FA55A001AB2526B84E985083693BC76FE211CA1D000679C889
310
E3C009832C87E1AC2EDD05C302557422DF0800E316FCAC86978A371F025A6C7DAA9F333E7BD160403A1A06EA75AA9888FF01504B03041400060808006668704651464CB48900000043010000360000006662782F46463531313837412D383445392D344442412D393438372D3844383138364241343945352F646972656374
310
6F72792E786D6C9D8F310EC2300C45AF127987122606C71DD918B841D4B851A43646695A717C52A85029031293A5A76FBF6FACEF7DA7264E43906840EF0FA03836E242F406C6DCEE4EA06AC22492573150D1F66C60C640E8938CB705396EEDD86DE9B5042FE27813D640EA63BB001C722AF6E55CB61E4863F58284D5D3F53D
310
D715CE1C3985E63FD7F1B7EBDD617E9F1E504B0304140006080800666870469948B3F238070000201C0000340000006662782F46463531313837412D383445392D344442412D393438372D3844383138364241343945352F6F626A656374732E786D6CDD596D6FDB3610FE2B84F665FB20C9F25BEC4271E1D849611469831A
310
1DF64DA065CAE1A2379052E2ECD7EF4891B224CBB692B540B114681C9A3ADE3D77F7DCF1E47EDC47217A268CD324BE361CAB672012FBC996C6BB6B23CF027362A08F33E4B224C92AFB0C14E3885C1B62D998B93B96E4A95ADA9200E76173F5EEE62FC47D121303F921E6FCDAE0FE2389B085F32CD912FE646D7186AD5DB0B7
310
1CABD85817BB63387D6C1C956246E20C5485F518A4280D9CFA9F60923D736DB1A1B6ADDF6DDBE0CC365B1A5E5794C63CC3B17FA455434EBF9B560367B8BCED8FA6E668381C98C371DF316FEE6E96A67335E82DC68BC5747E3B35D0CCDD2449583A2025F116BCF86ACC1CD716DF94E62B14DAF4F6933826BE42B36DC39628B9
310
94F0262635601D695AC52185AD95854147E34F6CEB044A4DA51ADADA38FDBB1ABDC9E66F0081778952C68988729E31F0B5C2BEC8879E6B17AB35BF508E229C1146718842BA61988183606BE1A09A18912D42141298492F6A79555D21B02FE7529B96411E86227F8D99CC340FF291645C6A46FF21ECA07DF534D009ACCD699C
310
4D94B1D96B0A22A6AE2D178BEF067DF56501240A42BC83680133C5A641BF81D74270C16A69CC3EDF6DF66BC10FED87A72C4909CB44E4C9645679A73D58092D08BE0EA014B8D67D7740E51B40FF05902F75412E788ED1FD703FD4B6331CF32061117807F590D983FF7A487C3CFAE4DAE5C333846A5C790A5348DB1F8469CD8C
310
DAD9154867EE33047DC206CAB8B58F4388E97B1A8B3C87404161024BC0F7C1666FCC5640A6B0084FE110AC877FAE2D3E22F855C801BE6978A88D7E3B384A274C33CF0EBEFA0431C3A85FBAAA66E3297C473F04DFF972FD799DB300FBE45E25F6920434A61914D376856AA0D752FEFBEA8BCCC8237B6ABB7C38679708E268F1
310
CB5AF90549C7802AA20E17AE912BF714D23D0C714C929CABF536A2F2933061DEE6D52B72B8F5AC3F75101487417E8B08682533A8EE3EA3A900C59829F34A26B40E38091E5401B82B9CEA6DB0FF24E0F57C60ACF7E801518B5953681EA51E8E923C16F47D1CDE4DD3AC414FFE38CEB4DF9BF627D3B136964BF13A7B343594CA
310
8B73229C9E386451F396620D2DB9C8A321B0659B053EF44C79E62529F669D61E0B0D23548602D86755DED220C839907A2B2C0D8DAD813342BDCAFFE521E7B557877834C23BE2055854B8D6F36A0095C2B505ADC8ECC284731A132E3B9423E66AA0D2B380088AB8D5525B8290722F22197E4FFCC992D7083F4682D0835E2A13
310
DDECE5E8D30AAAEA794AA2E8DC92D893F6BF7A1C4769587469973070FA8D135A71154A8B239E21DE3C9C79BD2D914DF725E9252F687C3B499FBE5BFC097818FEE9F0E82328B4DE50232F7BD6B146CE54FC4C8054C6236770A51D71092B7D54267A903087AEC97FF55E08DD3D7623B44EE77012061E0DC33CF28A7A9091085A
310
309CE5AC53BE8E47BD23E72B5E682444E5A48086D02077264DD97BE8EE03AC92CDC729D2AC1C0346D118EE689D0C39B2A23584A52FE47D545CBB2E7BFFED52FF335F56EF294FE4F52561DB564DEB6D84EEC074C320E85255B8328EA4E4995B4DBE485E5C2EE330D44214BF15B70415218C3C5331989037A0D6FB037FC1990F
310
44BA96BFCD1BC8882DD91E7A8A9A3835E6306670A896A6FBD4EA4D07C84E948F5AE3B512841AC1B4010B9EBD171FC26F185C0D9D1FB755576317EB2B51D82C18AC1CF43823EBEBA775430AAC747EFA4160445E1A12D4EA42347267447D5F1DFAD5860465D1F7D599C7B3C73CDAC4988ACA28C2026FD30F1FE55DF2DA868B82
310
7D7737729CC9D5DC9C0C6FA7E670793337A7C3C99539594E9CC9F8663E9CDE8E6C467892339F70BB6FF73CDD3BA5F14E0746015D971B054C152E5FFD743C371DFC3FBE5184C9069F8AC55FF54251B67BA2216BE462D70B452B516FDED6FD3B4744DD5EC4DED43917B3021DE0E7CB169091AEF7DD5B0B2D5A7712ED3A572AE2
310
1B0BEFC9DBCA4FAF3135426FAD0FB51D6D945FE762983DB554297DBB95BC369E0C8693E5EDD2EC3BE385395C0C96E6FCAA0FB4D6BF9DC08D7034BFEB9765ACC95697EACA2FC1A1BA0856C668300DE6494861284FB6684712B801C1D4A103BFB2887079B38106409571FD46A0C3D3CFC54C35C39B503FED3F62184C87AA22E7
310
3E0C45E1D6716DA875F41B8C41C524520EA7AC27283C2ADA0D94337A6D40086414EA8BB58171961C1E4AE98D7125042E8E77E2CE543C55FE7D784CA003B172B0ABDCD3051765592D3A613890CAF704C076BA2179BFE95A1D8433F8B8C9B3D298C3C2C11A05827E2150180753BF2705EF1E88E7BC5D8E25F7D420E934993F1B
310
07855433C36C27C7EB15BCE7CB075B4CC6575F511AE63BE1CE73F5BE26C9147D4698174328170243999962710F5F7CB01F5802AF982274472108D0EFFBC9F80F7B91445112174BF65CBDA842EB4778EDB4B5F5C80F1A979E33B265DFA3C6FA30B7E2C4C25BFE040BE05A46C56CB480B81600253D5502407B44F8021EABED5F
310
2D912A029516B64A31021E39D3479048E25D8E489BEA86CA00127201B4925F1E3EE805D76630049FFD0B504B03041400060808006668704694FD38B4DD000000530100003C0000006662782F46463531313837412D383445392D344442412D393438372D3844383138364241343945352F7265736F75726365732F322F636E
310
782E786D6C4D90CD6A042110845F45BC8F3F3B2484C5715F22A75C16A3BD4676B4077F42F2F6D18D819CBAA9FA68AA5A5DBEE24E3E21978069A392094A20597421F98DB67A5B5E28B9689511EB3F8C9264226C74C8542B9FB11D537270336D1FEA1ED27D8AE2EA21410EF67A244F89DD4D291B2DF603A261A6557450EECC99
310
6A9864190AB66CA19FA821C23C6133980A8EEA93904F8B5817F9FC2AD7B358CF52BE293E48ADDE11F7C9875421E3412CF625F53C42F1616BD57298CC28D18DBF70AC8753BCDB5A959AFB072656BF8F8E85683CF007F2EB6AC547C53E1EFDFB1CEFD03F504B030414000608080066687046FF15A4A45D000000800000003A00
310
00006662782F46463531313837412D383445392D344442412D393438372D3844383138364241343945352F7265736F75726365732F636E782E786D6C4D8B3B0E80201005AF42B6F75B59F0390B113044D83508C6E30BC6C26AF226F3B8BA6360974DA7271430F523308B2B198F9B80925DB700539227A2FCCB80A18E5640D3
310
20F996A81C9F32D6E9129A0D1EF74FCE750E6D57BC7165FBCA07504B03041400060808006668704656F85DD74101000046050000300000006662782F46463531313837412D383445392D344442412D393438372D3844383138364241343945352F636E782E786D6CCD94C14EC3300C865FA5CABD69B30984A6349338F0041C
310
10B734F54A581A57898BD8DB938C6E801068123D708B9CDFD2FFD9BF2CB7AF832B5E20448BBE6182D7AC006FB0B3BE6FD844BBF286155B2503227D92B1C2EB011A96CB4CC93EE034CEA50E767A72B9EAACDFCF454D146C3B11445618A7636C58344F3068AE27C20EE29E779A34173C40C4291848FD640798FB4D004DD031B5
310
AAC55559AF4B717D2FD69B7ABD11E2515659A9648BE866BDF50401C7C2607AF864A69655FE56720A76D66402A63E9CF1D67A59A57F256372EBFB59478731EBC6D159A3298DA94243406512811E64F52E56B2CABC5FA8EF6E1F4E0E8ACE063084E1B0F80056170D40FC3480B3319E927019FF51F83B36B6CF0977F96DFF1176
310
B6B518EA29AD31C5F5FBFE538AB4EFDDFF0BFDD9D8F2994FA784ACF97FC8275F0B1157C79397969E2FA07A03504B0304140006080800666870467E26F9807E000000A30000000B0000006662782F636E782E786D6C4D8CD10A832018465F45FE7BB709B67E410DA37A8F5816B2D27039F6F8D3D1C5AE3E387CE7C8E6B3ADE4
310
6DE3CB05AF805D6E40AC7F84C9F945413A668A401A2D6308C7DF0D881F37ABA060D0728921ED279AEC3CA6B5D0D5F9E70987A1620C6B4391F782F2AE355470AC2976C8F0DE1A2EFA2A1BD7A2E4F9F5F296BCFE02504B030414000608080066687046A6D797065F0000008200000007000000636E782E786D6C4DCB3B0E8020
310
1045D1AD90E9FD7516806B51190811670C8A61F982B1B0BAC9C97B72CA7B1037C6D3332918DA1E04D2CAC69353902EDB8C20262D23F3F59B81A079470595414B17391D1F19B4730A5583A7ED43BBE4025D9592775E5ADFFA01504B030414000608080066687046ECFD112DA800000026010000130000005B436F6E74656E74
310
5F54797065735D2E786D6C7D4F4B0EC22010BD0A61DF525D18634ABB506FE00510A79458060253536F2FD89D5197F3FED3F68B9BD80362B21E25DFD40D6780DADF2C1AC9671AAA3D677DD75E9E0112CB5A4C928F44E12044D22338956A1F003333F8E814E5331A1194BE2B0362DB343BA13D122055543278D79E6050F344EC
310
BC6478EDCD76CE8EABAE5449AE4298AC56946789C28AAFBEABC53F3EAF09A84A1441B91F0101CD4780756578C173A578FFDDBD00504B0304140006080800666870463DEE336E64000000790000001B0000006175746F6465736B2D64657369676E2D7061636B6167652E786D6C35CBC10E83200C00D05F21DCA56CA76D41FC
310
96062B120735B69A7DBE268BB7777961F8D5AF396893C2ADB70FE7ADA196782C2DF776D7A97B5933C430F15651E5469C55D70F80A4992A3ADC954792C525AE70A1E4D6AD9816CC044FEFDF01FE3FDE907802504B030414000608080066687046DDB52BB9F40000008E0100003D0000006662782F46463531313837412D3834
310
45392D344442412D393438372D3844383138364241343945352F7265736F75726365732F322F636F72652E786D6C8550CB6E833010FC15B477030E4930917104A27C414FBD59C62156828DFCA8FAF9B50395DA534FBB9A9D99DD1D7AFD5A9ED9A7B44E19DD02CE4BC8A41666527A6E21F81B22905D19B5C6F85F34C8345F64
310
0B090646676BC2BA43C2682F7542B599E40E72E7A4874C3C63D3821377B9F09C071F19EE91AF5C3CF82C739C6F3C464350D32E5553745337252DB0E6D89161388DA8EBDE303A1242507FAE7BD4D7434D9A91D40D1E6991C48C7AB5FC6C1756722F276087129F5059217C7EC7D5A5AC2E187FD022311975DEC69FF7A5E9BB48
310
A7C586FE710BEBF4BF5B50DA5787DD6D533860381EF71A305AA474627945176B4A927D03504B030414000608080066687046875BF592F9000000960100003B0000006662782F46463531313837412D383445392D344442412D393438372D3844383138364241343945352F7265736F75726365732F636F72652E786D6C8550
310
CB6EC23010FC9568EF4E6202C4418E1188F2053DF566394BB02076E447D5CFAF4D52A93DF5B4ABD999D9DDE1C7AFE9597CA2F3DA9A1E6859438146D9419BB187186E84417114DC591B7ED1A03072C21E320C828FCEC679859435014D468D1D7005A5F718A050CFD4F4E0D51D2759CA1812C33FCA59AA871CB1A4E5C2133C46
310
3DAC523D24377DD3E84074DB13BB5C7657723ABD51B2658C91F3BE3D93737B695977656D47AFBCCA62C1839E7EB62B8732E0006253D31DA91B42F7EFB439D4CD81D20F5E65A6E03EB8F4F3BA347F07C2A1B7D129F4BC5AA67F5CE33CFCEF1AB509CD66755D141E044D47BE06825739A5545E11A69A1315DF504B0304140006
310
08080066687046FA449FC6F3000000B1010000310000006662782F46463531313837412D383445392D344442412D393438372D3844383138364241343945352F636F72652E786D6C8D50CB6EC32010FC156BEFD826B6131261224749BEA0A7DE10100725068B47D5CF2FC4AED4DE725A343BC3CC0E3D7E4FCFE24B39AFADE9
310
01973514CA082BB5197B88E186081447469DB5E10F0D0AC327D5438681D1D1D938AF90B02628935163A55A41EEBD0A5088677AF4E0C55D4DBCE43124867F9433170F3EAA12970B8FD1A0A75FA9708A0725816D6ADCA1BA4178FB819B43DD1C30FEA45566321AA396AB9596C95DDFB472C0AED70E63B21B10692F7BD49E4F03
310
DAB76487C89960B23D0DEDFED2D12A8B19F5C1A59BD74FF275EFCA17E1BFCC71966F64D626349BD57051786038E5792D18AD728169BCDA4D3397CD7E00504B030414000608080066687046078CC3C054010000DD0200000C0000006662782F636F72652E786D6C8D52DB8E832014FC15C33B2AB5ADB6419A36DD7EC13EED1B
310
45EA922A182EA69FBFE025AE0F7B89099239E7CC9C99804FAFB6897AAE8D50B204284E41C42553959075099C7DC002442782B552F65B1B88246D7909020C08AEB572DD0431252D970195AAE213488DE11644ACF1971218F6C95B1A53677D8779C61D654F5AF318C5631FC1CE896A1A159567130FC1352087EDB9B85E773778
310
3EBF21B82D8A025EF6F9055EF26B5E1C6E457E40379C846182AD686775A639B5BC026493A21D4C3388F6EF283BA6D911A10F9C844E828DD5DEF3241ADC01F2B8BF7032E22B3ED7557FF339216DB699F8C6090308F2EB0D058293908FFF0DE1AD33F4C23E3F4BEFCD6CE1E9A19E33ABF4D6572AE596524F1BC73D751A0D1F4E
310
C6AA671E087EE2D9FCC2F33B870F8ACADAAF46ADBFDE9D0DEAEB9D3AAE616F5F9154BAA5CDB2DCB8E2722E422B4BF338538DD2FF999EADCE6126E161922F504B0304140006080800666870465CE0CA9608010000B201000008000000636F72652E786D6C8D50C16E842014FC15F2EEA8ACBB2B6E908DC6FA053DF54685B564
310
158CE0A6FDFBC26A93F6D6D32333F3DE0CC3AE9FD3881E6A71DA9A0A48920152A6B7529BA182D5DF300574E56CB1D6FF9201326252154418381B16BBCE3BD45BE39589A8B152EDA0704E7940FD181E15B8FE434D2211AB0F0A774F66D1DFC5A012926C3ACEBC9E7E56FB4509AF24F043464E38CB3139BF92FC92E51742DE58
310
1A959CADAB96BB9596C15DDFB45A8097C79AB6EDA9C375FD42F091528A9B73D1E0A6680B5A76B42849C7D2B8CC99F34BF8F37E24E4F4C88947F465E94671F66EEDB80B422889AC19BF80672C8DC49FD0EB2CFF115A1B9F1FF683DB86034E42A027118C6383613CEB0D33B6CDBF01504B010214001400060808006668704600
310
00000000000000000000003700000000000000000000000000000000006662782F46463531313837412D383445392D344442412D393438372D3844383138364241343945352F617474726962757465732E62696E504B0102140014000608080066687046000000000000000000000000350000000000000000000000000055
310
0000006662782F46463531313837412D383445392D344442412D393438372D3844383138364241343945352F76657274696365732E62696E504B0102140014000608080066687046F270F13306000000040000003600000000000000000000000000A80000006662782F46463531313837412D383445392D344442412D3934
310
38372D3844383138364241343945352F747269616E676C65732E62696E504B010214001400060808006668704688E57597CD3F0000904100004200000000000000000000000000020100006662782F46463531313837412D383445392D344442412D393438372D3844383138364241343945352F7265736F75726365732F32
310
2F305F67656E657269632E706E67504B010214001400060808006668704651464CB4890000004301000036000000000000000000000000002F4100006662782F46463531313837412D383445392D344442412D393438372D3844383138364241343945352F6469726563746F72792E786D6C504B0102140014000608080066
310
6870469948B3F238070000201C000034000000000000000000000000000C4200006662782F46463531313837412D383445392D344442412D393438372D3844383138364241343945352F6F626A656374732E786D6C504B010214001400060808006668704694FD38B4DD000000530100003C00000000000000000000000000
310
964900006662782F46463531313837412D383445392D344442412D393438372D3844383138364241343945352F7265736F75726365732F322F636E782E786D6C504B0102140014000608080066687046FF15A4A45D000000800000003A00000000000000000000000000CD4A00006662782F46463531313837412D38344539
310
2D344442412D393438372D3844383138364241343945352F7265736F75726365732F636E782E786D6C504B010214001400060808006668704656F85DD741010000460500003000000000000000000000000000824B00006662782F46463531313837412D383445392D344442412D393438372D384438313836424134394535
310
2F636E782E786D6C504B01021400140006080800666870467E26F9807E000000A30000000B00000000000000000000000000114D00006662782F636E782E786D6C504B0102140014000608080066687046A6D797065F000000820000000700000000000000000000000000B84D0000636E782E786D6C504B01021400140006
310
08080066687046ECFD112DA80000002601000013000000000000000000000000003C4E00005B436F6E74656E745F54797065735D2E786D6C504B01021400140006080800666870463DEE336E64000000790000001B00000000000000000000000000154F00006175746F6465736B2D64657369676E2D7061636B6167652E78
310
6D6C504B0102140014000608080066687046DDB52BB9F40000008E0100003D00000000000000000000000000B24F00006662782F46463531313837412D383445392D344442412D393438372D3844383138364241343945352F7265736F75726365732F322F636F72652E786D6C504B0102140014000608080066687046875B
310
F592F9000000960100003B00000000000000000000000000015100006662782F46463531313837412D383445392D344442412D393438372D3844383138364241343945352F7265736F75726365732F636F72652E786D6C504B0102140014000608080066687046FA449FC6F3000000B1010000310000000000000000000000
310
0000535200006662782F46463531313837412D383445392D344442412D393438372D3844383138364241343945352F636F72652E786D6C504B0102140014000608080066687046078CC3C054010000DD0200000C00000000000000000000000000955300006662782F636F72652E786D6C504B010214001400060808006668
310
70465CE0CA9608010000B2010000080000000000000000000000000013550000636F72652E786D6C504B050600000000120012002D060000415600000000
  0
ENDSEC
  0
EOF
